Blink 182 - Touchdown Boy Chords & Tabs

 

Touchdown Boy Chords & Tabs

Blink 182 Chords & Tabs

Version: 3 Type: Tab 0 ratings
1 star 2 stars 3 stars 4 stars 5 stars
comments

Touchdown Boy Tab

Artist:Blink 182
Title:Touchdown Boy

Intro
 Strumming Not Shown
e------------------------------------------------------------------------------------
B------------------------------------------------------------------------------------
G-9-9-8-8-----------------9-9------------------9-------------------------------------
D-9-9-8-8-9-9-7-7-6-6-2-2-9-9-9-9-7-7-6-6-2-2--9--6-7-9-11--6-7-9--9--6-7-9-7--6-7-9-
A-7-7-6-6-9-9-7-7-6-6-2-2-7-7-9-9-7-7-6-6-2-2--7--------11---------9--------7--------
E---------7-7-5-5-4-4-0-0-----7-7-5-5-4-4-0-0------------9---------7--------5--------

e------------------------------------------------------------------
B------------------------------------------------------------------
G-9-----------------------------9--9-----------------------------9-
D-9--9-7-6--9--9-7-6--7--9-7-6--9--9--9-7-6--9--9-7-6--7--6-7-6--9-
A-7---------9---------7---------7--7---------9---------7---------7-
E-----------7---------5----------------------7---------5-----------
[ Tab from: http://www.guitartabs.cc/tabs/b/blink_182/touchdown_boy_tab_ver_3.html ]
e-------------------------------------------------------------
B-------------------------------------------------------------
G-------------------------------------------------------------
D---9-----9-----7---7-----7-----9-----9-----7---7-----7-------
A-7---7-7---7-7---7---7-7---7-7---7-7---7-7---7---7-7---7-----
E-------------------------------------------------------------

e-------------------------------------------------------------
B-------------------------------------------------------------
G-------------------------------------------------------------
D---9-----9-----7---7-----7----9------------------------------
A-7---7-7---7-7---7---7-7---7--9------------------------------
E------------------------------7------------------------------

Verse (Strumming not shown)
e-------------------------------------------------------------
B-------------------------------------------------------------
G-9---11------------------------------------------------------
D-9---11--9--7------------------------------------------------
A-7----9--9--7------------------------------------------------
E---------7--5------------------------------------------------

e-------------------------------------------------------------
B-------------------------------------------------------------
G-9-----------------------------------------------------------
D-9-9-7-2-----------------------------------------------------
A-7-9-7-2-----------------------------------------------------
E---7-5-0-----------------------------------------------------
Comments