Blink 182 - Toast And Bananas Chords & Tabs

 

Toast And Bananas Chords & Tabs

Blink 182 Chords & Tabs

Version: 3 Type: Tab 0 ratings
1 star 2 stars 3 stars 4 stars 5 stars
comments

Toast And Bananas Tab

===========================================================
	Artist: Blink 182
	  Song: Toast and Bananas
	 Album: Chesire Cat, Buddha
===========================================================

Tabbed: TheMutts @ Ultimate-Guitar.com
Email: fadetoblack726@yahoo.com

Tuning: Standard


Intro
                                     _____________ ________
                                           1,2,3,4|       5|
|-----------------------------------|-------------|--------|
|-----------------------------------|-------------|--------|
|---------7--------------4----------|-------------|--------|
|--777777-4-0--7--222222-2-0-444444-|-777-7-6-4-2-|--------|play 5x
|--777777-----77--222222-----444444-|-555-5-4-2-0-|--------|
|--555555-----55--000000-----222222-|-------------|--------|
   |P.M.--------------------|


Preverse
|--------------------------------------------------------|
|--------------------------------------------------------|
|-----222-11---------------------------------------------|
|------------22-00-----0----------222-00----00-----0-----|
|--00--------------444---4-0---00--------44----444---0---|
|--------------------------------------------------------|


Verse

|-------------------------------|
|-------------------------------|
|-------------------------------|
|-----------------------777777--|
|--777777-222222-444444-555555--|
|--555555-000000-222222---------|


Chorus
[ Tab from: http://www.guitartabs.cc/tabs/b/blink_182/toast_and_bananas_tab_ver_3.html ]
|-------------------------------------------------------|
|-------------------------------------------------------|
|------99--1111--77---------999999-111111111111-777777--|
|--77--99--1111--77--777777-999999-111111111111-777777--|
|--77--77--9-9---55--777777-777777-9-9-9-9-9-9--555555--|
|--55----------------555555-----------------------------|

|------------------------------|
|------------------------------|
|----------------777777777777--|
|--777777-444444-777777777777--|
|--777777-444444-555555555555--|
|--555555-222222---------------|


Solo

|--------------------------------------------------------------------|
|--------------------------------------------------------------------|
|--------------------------------------------------------------------|
|------2--------2--------2------0-------2--------2--------2------0---|
|--0245-542-0245-542-0245-542-24-4--0245-542-0245-542-0245-542-24-4--|
|---------------------------------5--------------------------------5-|

|--666-9--8-666-9--8-666-9--8-1212-1010-9-12--666-9-8-666-9-8--|
|--------------------------------------------------------------|
|--------------------------------------------------------------|
|--------------------------------------------------------------|
|--------------------------------------------------------------|
|--------------------------------------------------------------|

|--------------------------|
|----9-9h10-12---9-9h10----|
|--9-----------9--------9--|
|--------------------------|
|--------------------------|
|--------------------------|


Thats all the parts for the song.. just piece them together as you play.

It's really easy. Just email me if u have a question or put it in the comments part..
Comments