Blink 182 - Toast And Bananas Chords & Tabs

 

Toast And Bananas Chords & Tabs

Blink 182 Chords & Tabs

Version: 2 Type: Bass Tab 0 ratings
1 star 2 stars 3 stars 4 stars 5 stars
comments

Toast And Bananas Bass Tab

Toast and Bananas
From Buddha (I haven't tried it with Cheshire cat yet)

Intro (instead of bending switch from 5 to 4 and back a few times) b = bend r = release
G------------------------------|
D------------------------------|
A-0-0-0-2-2-2-4-4-4brbrbr------|
E------------------------------| x8

Verse 1
G-----------------------------------------------|
D-----------------------------------------------|
A-0-0-0--7-7-7-9-9-9-5-5-5----------------------|
E-----------------------------------------------| x4
[ Tab from: http://www.guitartabs.cc/tabs/b/blink_182/toast_and_bananas_btab_ver_2.html ]
Chorus
G-------------------------------------------------|
D-------------------------------------------------|
A-0-0-0------7-7-7-----9-9-9------5-5-5-----------|
E-------------------------------------------------|

G----------------------------------------------|
D----------------------------------------------|
A-0-0-0--7-7-7-9-9-9-5-5-5---------------------|
E----------------------------------------------|

Intro x 4
Verse 1 x2 (Until he sings "I couldn't care less of what you say...")

Verse 2
G------------------------------------|
D---------2-2-2----------------------|
A-0-0-0----------4-4-4-4-4-4---------|
E------------------------------------| x2

Chorus

Guitar Solo
G------------------------------------|
D------------------------------------|
A-0-0-0-7-7-7-9-9-9-5-5-5------------|
E------------------------------------| x4

Verse 1 x2
Chorus

End on A--0--
Comments