Blink 182 - Time To Wake Up Chords & Tabs

 

Time To Wake Up Chords & Tabs

Blink 182 Chords & Tabs

Version: 1 Type: Bass Tab 0 ratings
1 star 2 stars 3 stars 4 stars 5 stars
comments

Time To Wake Up Bass Tab

Title: Time To Wake Up
Artist: blink-182
Tabbed by: Blake Rakoczi
E-Mail: effromtheretardedrabbit@hotmail.com

~ = Let Ring

Intro
G|-------------------------------------------------------------------
D|-------------------------------------------------------------------
A|------------------------------------------------------------------- x1
E|-4444-2222-1111-2222-----------------------------------------------

G|-------------------------------------------------------------------
D|-------------------------------------------------------------------
A|-4-4-4-4-4-4-4-4-4------------------------------------------------- x2
E|--------------------4-4-4-4--2-2--4-4------------------------------

First Verse
G|-------------------------------------------------------------------
D|-------------------------------------------------------------------
A|-4-4-4-4-4-4-4-4--------------------------------------------------- x3
E|------------------4-4-4-4--2-2-2-2---------------------------------

G|-------------------------------------------------------------------
D|-------------------------------------------------------------------
A|-4-4-4-4-4-4-4-4--------------------------------------------------- x1
E|------------------4-4-4-4--22--22----------------------------------

Chorus - (Whole Thing) x2
G|-------------------------------------------------------------------
D|-------------------------------------------------------------------
A|-4-4-4-4-4-4-4-4---------------------------------------------------
E|------------------1-1-1-1-1-1-1-1----------------------------------

G|-------------------------------------------------------------------
D|-------------------------------------------------------------------
A|-------------------------------------------------------------------
E|-2-2-2-2-2-2-2-2--4-4-4-4-4-4-4-4----------------------------------

G|-------------------------------------------------------------------
D|-------------------------------------------------------------------
A|-4-4-4-4-4-4-4-4--------------------------------------------------- x2
E|-------------------4-4-4-4--2-2--4-4-------------------------------

Second Verse
G|-------------------------------------------------------------------
D|-------------------------------------------------------------------
A|-4-4-4-4-4-4-4-4--------------------------------------------------- x3
E|------------------4-4-4-4--2-2-2-2---------------------------------

G|-------------------------------------------------------------------
D|-------------------------------------------------------------------
A|-4-4-4-4-4-4-4-4--------------------------------------------------- x1
E|------------------4-4-4-4--22--22----------------------------------

Chorus - (Whole Thing) x2
G|-------------------------------------------------------------------
D|-------------------------------------------------------------------
A|-4-4-4-4-4-4-4-4---------------------------------------------------
E|------------------1-1-1-1-1-1-1-1----------------------------------
[ Tab from: http://www.guitartabs.cc/tabs/b/blink_182/time_to_wake_up_btab.html ]
G|-------------------------------------------------------------------
D|-------------------------------------------------------------------
A|-------------------------------------------------------------------
E|-2-2-2-2-2-2-2-2--4-4-4-4-4-4-4-4----------------------------------

Bridge - Note: The guitar plays its own riff.  The first time, don't play.
The second and third, you do play.
G|-------------------------------------------------------------------  --o
D|-------------------------------------------------------------------    |
A|-------------------------------------------------------------------    |
E|-6-6-6-6-6-6-6-6--2-2-2-2-2-2-2-2----------------------------------    | 
                                 		                         | x2
G|-------------------------------------------------------------------    |
D|-------------------------------------------------------------------    |
A|-4-4-4-4-4-4-4-4---------------------------------------------------    |
E|------------------4-4-4-4-4-4-4-4----------------------------------  --o

G|-------------------------------------------------------------------
D|-------------------------------------------------------------------
A|-4-4-4-4-4-4-4-4--------------------------------------------------- x2
E|------------------4-4-4-4-4-4-4-4----------------------------------

G|-------------------------------------------------------------------
D|-------------------------------------------------------------------
A|-4--4~~~~------------4--4~~~~-------------------------------------- x1
E|-----------4--4~~~~------------4--4~~~~--44--44--------------------

Chorus
G|-------------------------------------------------------------------
D|-------------------------------------------------------------------
A|-4-4-4-4-4-4-4-4--------------------------------------------------- x1
E|------------------1-1-1-1-1-1-1-1----------------------------------

G|-------------------------------------------------------------------
D|-------------------------------------------------------------------
A|------------------------------------------------------------------- x1
E|-2-2-2-2-2-2-2-2--4-4-4-4-4-4-4-4----------------------------------

G|-------------------------------------------------------------------
D|-------------------------------------------------------------------
A|-4-4-4-4-4-4-4-4--------------------------------------------------- x1
E|------------------1---------1-1-1----------------------------------

G|-------------------------------------------------------------------
D|-------------------------------------------------------------------
A|------------------------------------------------------------------- x1
E|-2-2-2-2-2-2-2-2--4-4-4-4-4-4-4-4----------------------------------

Outro
G|-------------------------------------------------------------------
D|-------------------------------------------------------------------
A|-4-4-4-4-4-4-4-4--------------------------------------------------- x4
E|------------------4-4-4-4-4-4-4-4----------------------------------

End On
G|-------------------------------------------------------------------
D|-------------------------------------------------------------------
A|------------------------------------------------------------------- x1
E|-4~~~~-------------------------------------------------------------
Comments