Blink 182 - Time To Break Up Chords & Tabs

 

Time To Break Up Chords & Tabs

Blink 182 Chords & Tabs

Version: 4 Type: Tab 0 ratings
1 star 2 stars 3 stars 4 stars 5 stars
comments

Time To Break Up Tab

-----------------------------------------------------------------------------
		     Time to Break Up - Blink 182
-----------------------------------------------------------------------------
Tabbed by: Brandon
Email: brn2sk8182@hotmail.com
Tuning: standard

I fucked this up 3 times already but im sure this one is right so i hope this one gets posted

intro
e|----------------------|   
B|----------------------|   
G|----------------------|   
D|-66---44---33---6-6---|x1 
A|-66---44---33---6-6---|   
E|-44-0-22-0-11-0-4-4---|   
[ Tab from: http://www.guitartabs.cc/tabs/b/blink_182/time_to_break_up_tab_ver_4.html ]
e|------------------------------------------------------|   
B|------------------------------------------------------|   
G|------------------------------------------------------| 
D|--3-3--1-1---3-3--1-1---3-3--1-1-------4-------6------|
A|4----------4---------------------------4-------6------|
E|----------------------4------------2---2---44--4--44--|
				     *       **     ** 
verse						 
e|-------|    |-----------------------------------------------------------|
B|-------|    |-6-6-6-6--5-5--7-7--6-6-6-6-5-5----------------------------|
G|-6-----|    |-6-6-6-6--6-6--6-6--6-6-6-6-6-6-66-66----------------------|
D|-x-x16-|    |-x-x-x-x--x-x--x-x--x-x-x-x-x-x-66-66----------------------|
A|-4-----|    |-4-4-4-4--4-4--4-4--4-4-4-4-4-4-44-44----------------------|
E|-------|    |-----------------------------------------------------------|
    this is the tricky part nobody put in their tabs see bottom for help here
chorus
e|-------------------------|
B|-------------------------|
G|-6-----------------------|
D|-6-x16-6-----4-----6-----|
A|-4-----6-x16-4-x16-6-x16-|
E|-------4-----2-----4-----|
interlude
e|--------------------------------------------------|
B|--------------------------------------------------|
G|--------------------------------------------------|
D|--------------------------------------------------|X3
A|--4--4--4--4--4--4--4--4--4--4--4--4--6--6--6--6--|
E|-6--6--6--6--2--2--2--2--6--6--6--6--4--4--4--4---|

e|--------------------------------------------------|
A|--------------------------------------------------|
G|--------------------------------------------------|
D|--------------------------------------------------|X1
A|--4--4--4--4--6--6--6--6--4--4--4--4--6--6--6--6--|
E|-4--4--4--4--4--4--4--4--4--4--4--4--4--4--4--4---|

end of interlude
e|-----------------------|x1
B|-----------------------|
G|-66------66-----66-66--|
D|-66--66--66--66-66-66--|
A|-44--66--44--66-44-44--|
E|-----44------44--------|

end on (dont let it ring)
e|----|
B|----|
G|----|
D|-6--|
A|-6--|
E|-4--|



| *  Palm Mute
| x  Mute note
=============================================================================

Alright the one part of the verse looks complicated and wrong but im sure its
right because i listened to the song and tried things for half an hour until
it sounded just about perfect. I tried to explain it to my best.
The way i do it is

B|-6-| Pinky
G|-6-| ring finger here
D|-x-| index mutes here
A|-4-| index here 

B|-5-| middle finger
G|-6-| ring finger
D|-x-| index mutes
A|-4-| index

B|-7-| pinky
G|-6-| ring finger
D|-x-| index mutes
A|-4-| index

so basically the pink takes care of frets 6 and 7 and the middle finger takes care of 5
Comments