Blink 182 - Time To Break Up Chords & Tabs

 

Time To Break Up Chords & Tabs

Blink 182 Chords & Tabs

Version: 1 Type: Tab 0 ratings
1 star 2 stars 3 stars 4 stars 5 stars
comments

Time To Break Up Tab

Artist:Blink 182
Song:Time to break up
Album:Rockshow Cd Single


E------------------------------
A----2-2--2--------------------
D----2-2--2-----------------2-2   
G----0-0--0--55--5--4-4--4--2-2
B------------55--5--4-4--4--0-0
E------------33--3--2-2--2-----

[ Tab from: http://www.guitartabs.cc/tabs/b/blink_182/time_to_break_up_tab.html ]
E-----------------------------------------------------
A-----------------------------------------------------
D--2-2------------2-2------------2-----------------2-2
g--0-0---4-4--22--0-0---4-4--22--2--4-4--22--5-5---2-2
B--------------------------------0-----------5-5---0-0
E--------------------------------------------3-3------
Comments