Blink 182 - Time Chords & Tabs

 

Time Chords & Tabs

Blink 182 Chords & Tabs

Version: 2 Type: Tab 0 ratings
1 star 2 stars 3 stars 4 stars 5 stars
comments

Time Tab

Intro
----------------------------------------------
----------------------------------------------
----------------------------------------------
----------8-s9--999-s10-s11--6666s7--777------
-7--777---6-s7--777-s8--s9---4444s5--555-6s7--
-5--555----------------------------------4s5--

---------------------------------------------
---------------------------------------------
---------------------------------------------
---------8-s9--999-s10-s11-111111--7777777---
---777---6-s7--777-s8--s9---9-9-9--5555555---
---555---------------------------------------
[ Tab from: http://www.guitartabs.cc/tabs/b/blink_182/time_tab_ver_2.html ]
ska riff
-555-55xxx5-777-55xxx5--555-55xxx5-777777777-
-555-77xxx7-999-66xxx6--555-77xxx7-999999999-
-666-77xxx7-999-77xxx7--666-77xxx7-999999999-
-777-77xxx7-999-77xxx7--777-77xxx7-999999999-
-777-55xxx5-777-55xxx5--777-55xxx5-777777777-
-555--------------------555------------------

distortion riff (number of strums not
		noted, listen to song to
		get it down)
----------------------
----------------------
----------------------
----8-9--10--11--6-7--
--7-6-7---8---9--4-5--
--5-------------------

Verse
--------------------------------
--------------------------------
--------------------------------
----999-----777----999----7-6-4-
-77-777--44-555-77-777-44-5-4-2-
-55------22-----55-----22-------

Chorus
 Same chords as intro. Listen to song to get
 strum pattern.

ending riff
------------------
------------------
------------------
---8-9-6-7--7-6-4-
-7-6-7-4-5--5-4-2-
-5----------------

a really easy song, check out more tabs at
http://fly.to/kawp
Comments