Blink 182 - The Rock Show Chords & Tabs

 

The Rock Show Chords & Tabs

Blink 182 Chords & Tabs

Version: 1 Type: Tab 1 rating
1 star 2 stars 3 stars 4 stars 5 stars
comments

The Rock Show Tab

   
The Rock Show
blink-182 
Take Off Your Pants and Jacket (2001)

Multiple tracks.  You need two guitars to make the song sound full enough.
 
 INTRO (played over backing chords)                      LEAD-IN
    A5                       D5          E5
E|--------------------------------------------------|    |-----|
B|--------------------------------------------------|    |-----|
G|--------------------------------------------------|    |-----| 
D|------2---0--------------------2---0--------------|    |--7--| 
A|--0-----------4h5-5p4-0----0-----------4h5-5p4-0--|    |--7--|
E|--------------------------------------------------|    |--5--|
                                                            PM...
 VERSE

|--5-----------------------5-------------7--------------|
|--5-----------------------7-------------9--------------|
|--6-----------------------7-7-7-7-7-7-7-9-9-9-9-9-9-9--|
|--7-7-7-7-7-7-7-7-7-7-7-7-7-7-7-7-7-7-7-9-9-9-9-9-9-9--|
|--7-7-7-7-7-7-7-7-7-7-7-7-5-5-5-5-5-5-5-7-7-7-7-7-7-7--|
|--5-5-5-5-5-5-5-5-5-5-5-5------------------------------|
     PM. . . . . . . . . .   PM. . . . .   PM. . . . .
     Hangin out....          Acting....  drunk....

 CHORUS
[ Tab from: http://www.guitartabs.cc/tabs/b/blink_182/the_rock_show_tab.html ]
|--5-5-5--5\2-2--2-5-5--|    |-----------------------------------|    |------------------5---4--|
|--5-5-5--5\2-2--2-7-7--|    |-----------------------------------|    |------------------7---6--|
|--6-6-6--6\3-3--3-7-7--| x3 |--9-9-9-9-9-9-9-9-7-7-7-7-7-7-7-7--| x2 |--9-9-9-9-9-9-9-9-7---6--|
|--7-7-7--7\4-4--4-7-7--|    |--9-9-9-9-9-9-9-9-7-7-7-7-7-7-7-7--|    |--9-9-9-9-9-9-9-9-7---6--|
|--7-7-7--7\4-4--4-5-5--|    |--7-7-7-7-7-7-7-7-5-5-5-5-5-5-5-5--|    |--7-7-7-7-7-7-7-7-5---4--|
|--5-5-5--5\2-2--2------|    |-----------------------------------|    |-------------------------|
                                  PM. . . . . . . . . . . . . .          PM. . . . . . . 
    Fell...  girl...rock...     Everything's... she's...                 Fell...         girl...

 BRIDGE

|--------------------------------------------------------------| 
|----2------2----3----2------2----3----2------2----3----2------|
|------2------2----2----2------2----2----2------2----2----2----| 
|--------------------------------------------------------------| 
|--------------------------------------------------------------| 
|--------------------------------------------------------------| 
                       

Intro x2 
Lead-In x16
Verse x2
Intro x2
Verse (bass only)
Chorus
Intro x2
Verse x2
Chorus
Bridge x2
Chorus
Intro x8 (fade out w/keyboard)


Comments