Blink 182 - The Happy Song Chords & Tabs

 

The Happy Song Chords & Tabs

Blink 182 Chords & Tabs

Version: 1 Type: Tab 0 ratings
1 star 2 stars 3 stars 4 stars 5 stars
comments

The Happy Song Tab

artist: Blink-182
song title: The Happy Song

normal
E---------------------------------------------------------------------
B---------------------------------------------------------------------
G--7----7-------7------7-------7-----7--------------------------------
D-----7-----7-------7------7-------7-----7-------0----------0---0-0--- repeat 2x
A---5-----5---5---5------5---5---7-----7---7-9-----9---9--------------
E----------------------------------------------7-----7----7---3-------

ref
E---------------------------------------------------------------------
B---------------------------------------------------------------------
G--7-7-7-7---7-7-7-7--------------------------------------------------
D--7-7-7-7---7-7-7-7---0--0-0--0-0--0--0-0--0-0----------------------- repeat 2x
A--5-5-5-5---4-4-4-4---9--9-9--9-9--5--5-5--5-5-----------------------
E----------------------7--7-7--7-7--3--3-3--3-3-----------------------
[ Tab from: http://www.guitartabs.cc/tabs/b/blink_182/the_happy_song_tab.html ]
normal
E---------------------------------------------------------------------
B---------------------------------------------------------------------
G--7----7-------7------7-------7-----7--------------------------------
D-----7-----7-------7------7-------7-----7-------0----------0---0-0--- repeat 2x
A---5-----5---5---5------5---5---7-----7---7-9-----9---9--------------
E----------------------------------------------7-----7----7---3-------


ref
E---------------------------------------------------------------------
B---------------------------------------------------------------------
G--7-7-7-7---7-7-7-7--------------------------------------------------
D--7-7-7-7---7-7-7-7---0--0-0--0-0--0--0-0--0-0----------------------- repeat 2x
A--5-5-5-5---4-4-4-4---9--9-9--9-9--5--5-5--5-5-----------------------
E----------------------7--7-7--7-7--3--3-3--3-3-----------------------

special
E---------------------------------------------------------------------
B---------------------------------------------------------------------
G---------------------------------------------------------------------
D------0-----0-------0-----0----------0---0-0-----0---0-0------------- repeat 2x hten go to ref.
A----9-----9-------7-----7----------5---5-------5---5-----------------
E--7-----7-------5-----5----------3---3----3--3---3---3---------------

End.
Comments