Blink 182 - The Girl Next Door Chords & Tabs

 

The Girl Next Door Chords & Tabs

Blink 182 Chords & Tabs

Version: 5 Type: Tab 0 ratings
1 star 2 stars 3 stars 4 stars 5 stars
comments

The Girl Next Door Tab

Screeching Weasels
Redone by Blink-182
The Girl Next Door
E-Mail: BLinkeR37@aol.com

Intro X2
E|----------------------------------------------------
B|----------------------------------------------------
G|---------4----------------5-------------------------
D|-5-------4-(X16)--2-------5-(x16)-------------------
A|-5-(X16)-2--------2-(x16)-3-------------------------
E|-3----------------0---------------------------------

[ Tab from: http://www.guitartabs.cc/tabs/b/blink_182/the_girl_next_door_tab_ver_5.html ]
Bridge
E|----------------------------------------------------
B|----------------------------------------------------
G|----------------------------------------------------
D|----------------------------------------------------
A|---0-2-3-2-0---0--55555555--------------------------
E|-3-----------3--------------------------------------


Continued...
E|----------------------------------------------------
B|----------------------------------------------------
G|----------------------------------------------------
D|----------------------------------------------------
A|---0-2-3-2-0---0--55555555--------------------------
E|-0-----------3--------------------------------------


Verse X2 (Each note x16)
E|----------------------------------------------------
B|----------------------------------------------------
G|----4-----xx5--xx5--xx5--xx5------------------------
D|-5--4--2--xx5--xx5--xx5--xx5------------------------
A|-5--2--2--xx3--xx3--xx3--xx3------------------------
E|-3-----0--------------------------------------------


Chorus - SAME AS INTRO
Comments