Blink 182 - The Girl Next Door Chords & Tabs

 

The Girl Next Door Chords & Tabs

Blink 182 Chords & Tabs

Version: 4 Type: Tab 0 ratings
1 star 2 stars 3 stars 4 stars 5 stars
comments

The Girl Next Door Tab

Song: Girl Next Door
Artist: Original:Screeching Weasel
        Cover: Blink-182
Album: Buddha
Tabbed By: Aaron Burch
   This is a very fun song to play but no one has it right on this damn website 
(sorry other people) Here is the way that sounds right to me (My ears have been 
torn off by an evil flock of seagulls so if it is wrong than shove it up your ass 
and figure it out for yourself)

Intro (play fast)(Play with Distortion)
E-----------------------------------------------------------
B-----------------------------------------------------------
G---------4---------------5---------------------------------
D-5-------4-(x16)-2-------5-(x16)---------------------------
A-5-(x16)-2-------2-(x16)-3---------------------------------
E-3---------------0-----------------------------------------
[ Tab from: http://www.guitartabs.cc/tabs/b/blink_182/the_girl_next_door_tab_ver_4.html ]
guitar riff:
E-----------------------------------------------------------
B-----------------------------------------------------------
G-----------------------------------------------------------
D-------------------------------------------------(x2)------
A--0-2-3-2-0-0-5-5-5-7-5--0-2-3-2-0-0-5-5-5-5-5-------------
E-3---------3------------3---------3------------------------

Verse:
E-----------------------------------------------------------
B-----------------------------------------------------------
G---------4---------------xx5-xx5-xx5-xx5-------------------
D-5-------4-(x16)-2-------xx5-xx5-xx5-xx5-------------------
A-5-(x16)-2-------2-(x16)-xx3-xx3-xx3-xx3-------------------
E-3---------------0-----------------------------------------

That's the whole song, just put the parts where they need to be.
Comments