Blink 182 - The Girl Next Door Chords & Tabs

 

The Girl Next Door Chords & Tabs

Blink 182 Chords & Tabs

Version: 1 Type: Tab 0 ratings
1 star 2 stars 3 stars 4 stars 5 stars
comments

The Girl Next Door Tab

Blink 182 ,Girl Next Door.
Tabbed by Anthony C, nocigar2001 @yahoo.com.
  
THis is most of the song. It is played with a LOT of distorrion
[ Tab from: http://www.guitartabs.cc/tabs/b/blink_182/the_girl_next_door_tab.html ]
----------------------------------------------------
----------------------------------------------------
----5(X8)-9(X8)-------------------------------------
----5-----9------7(X8)--3(X8)-----------------------
----3-----7------7------3---------------------------
-----------------5------1---------------------------

This is how it is played at the begining of a verse
----------------------------------------------------
----------------------------------------------------
----5(X8)-9(X8)-------------------------------------
----5-----9------7(X8)--3-x-3-x-3-x-3-x---------------
----3-----7------7------3-x-3-x-3-x-3-x---------------
-----------------5------1-x-1-x-1-x-1-x---------------



 
:: Ultimate Guitar Archive :: 
http://www.ultimate-guitar.com 

Comments