Blink 182 - The Country Song Chords & Tabs

 

The Country Song Chords & Tabs

Blink 182 Chords & Tabs

Version: 5 Type: Tab 0 ratings
1 star 2 stars 3 stars 4 stars 5 stars
comments

The Country Song Tab

band:blink-182
albume:The,Mark,Tom,and Travis show
email:guitarboy@internetpower.biz
transcripted by cho cho

This song is so funny i spent most of my time trying to figure it out and i know this is 100% wright or i am a monkeys uncle.

                     Bass        keep doing this 

------------------------------------------------------------------------------------------------------------------------3----3----3---3-----0--2--3---3---3---3---0---2-------------
-----3----3----3----3----------3---3---3---3---3------------
[ Tab from: http://www.guitartabs.cc/tabs/b/blink_182/the_country_song_tab_ver_5.html ]
                                                            
                  guitar
--------------------------------------------------------
--------------------------------1--------------1-----1--
--------------------------------0--------------0-----0--
--------------2-----------------2--------------2-----2--
----0---2---3--------0---2---3------0---2---3-----------
---------------------------------------------------3----

____________________________________________________________
____________________________________________________________
--------------------------------------------------- 
------1-----1------1----1-----1-----1--------------
------0-----0------0----0-----0-----0--------------keep 
------2-----2------2----2-----2-----2--------------doing
--3-------------3----------3-----------2----0---2--this
---------3------------3----------3--------3--------
Comments