Blink 182 - The Country Song Chords & Tabs

 

The Country Song Chords & Tabs

Blink 182 Chords & Tabs

Version: 3 Type: Bass Tab 0 ratings
1 star 2 stars 3 stars 4 stars 5 stars
comments

The Country Song Bass Tab

verse:
G----------------------------------------------------
D----------------------------------------------------
A-3----3------3------3-------------------------------
E---3-----3------3--------3------5-----7-------------

Play through twice then play
[ Tab from: http://www.guitartabs.cc/tabs/b/blink_182/the_country_song_btab_ver_3.html ]
Chorus:
G---------------------------------------------------
D---------------------------------------------------
A-33------33------33------3-------------------------
E-----33------33------33-----3----5-----7-----------

Play through twice then play
Verse (2x)
chrous ( 1x)
this is my first tab hope i got it right enjoy
Comments