Blink 182 - Take Off Your Pants And Jacket Chords & Tabs

 

Take Off Your Pants And Jacket Chords & Tabs

Blink 182 Chords & Tabs

Version: 1 Type: Tab 0 ratings
1 star 2 stars 3 stars 4 stars 5 stars
comments

Take Off Your Pants And Jacket Tab

   
HI EVERYBODY, I'M PABLEX (thr rocker) AND THIS IS THE REDUX OF THE
TABS OF THE BLINK 182 ALBUM "TAKE OFF YOUR PANTS AND JACKET". I 
DID THIS TABS THE DAY WHEN I BUY THE RECORD AND IT WAS UNCOMPLETE
AND WRONG BUT NOW WITH MORE TIME I GIVE YOU THIS REDUX. IF DO YOU
WANNA SAY ANY THING TO ME OR HAVE A QUESTION, COMMENT OR CORRECTION 
MAIL ME TO pablex182@hotmail.com

ANTHEM PART TWO
BLINK 182
BY PABLEX

INTRO 1
E|-3---3---1---1---0---0---1---1---|
B|---1---1---1---1---1---1---1---1-|
G|---------------------------------|
D|---------------------------------|
A|---------------------------------|
E|---------------------------------|

INTRO 2
E|---------------------------------|
B|---------------------------------|
G|---------------------------------|
D|--0H3-2--0H3-2--0H3-2-----0----0-|
A|-3------3------3------3-3--3-3---|
E|---------------------------------|

INTRO 3
E|---------------|
B|---------------|
G|-9-9-10-9--5-7-|
D|---------------|
A|-7-7-8--7--3-5-|
E|---------------|

VERSE
E|-----------------------------|
B|-----------------------------|
G|-5-5-5-5-5-5-----------------|
D|-5-5-5-5-5-5-7-7-7-7-3-3-3-3-|
A|-3-3-3-3-3-3-7-7-7-7-3-3-3-3-|
E|-------------5-5-5-5-1-1-1-1-|

CHORUS
E|---------------------------------|
B|---------------------------------|
G|-5-5-5-5-------------------------|
D|-5-5-5-5-3-3-3-3-7-7-7-7-5-5-5-5-|
A|-3-3-3-3-3-3-3-3-7-7-7-7-5-5-5-5-|
E|---------1-1-1-1-5-5-5-5-3-3-3-3-|

STRUCTURE
INTRO 1 X4
INTRO 2 X4
INTRO 3 X4
VERSE (NO GUITAR) X2
VERSE (GUITAR) X2
BREAK (BASS) X1
CHORUS X2
CHORUS (PALM MUTE) X2
INTRO 3 X4
VERSE (NO GUITAR) X2
VERSE (GUITAR) X2
BREAK (BASS) X1
CHORUS X2
CHORUS (PALM MUTE) X2
SOLO (BASS)
CHORUS X2
CHORUS (PALM MUTE) X2
INTRO 2 X4

ONLINE SONGS
BLINK 182
BY PABLEX

PRELUDE
E|----------------------------|
B|----------------------------|
G|----------------------------|
D|----------------------------|
A|-0--5-7-5---4H5-4H5-4H5-4H5-|
E|----------------------------|

CHORUS 1
E|---------------------------------|
B|---------------------------------|
G|-7-7-7-7---------9-9-9-9-7-7-7-7-|
D|-7-7-7-7-7-7-7-7-9-9-9-9-7-7-7-7-|
A|-5-5-5-5-7-7-7-7-7-7-7-7-5-5-5-5-|
E|---------5-5-5-5-----------------|

OUTRO
E|--------------------|
B|--------------------|
G|------7-7-----------|
D|-7-7--7-7--4-4--2-2-|
A|-7-7--5-5--4-4--2-2-|
E|-5-5-------2-2--0-0-|

STRUCTURE
BEGIN (BASS) X2
PRELUDE (CLEAN) X4
PRELUDE (DIST.) X4
VERSE (BASS) X2
PRELUDE (DIST.) X4
VERSE (BASS) X2
CHORUS X2
VERSE (BASS) X2
CHORUS X4
OUTRO X4
CHORUS X4

FIRST DATE
BLINK 182
BY PABLEX

INTRO
E|----------------------|
B|-5----3----3----3---0-|
G|---5----5----5----5---|
D|----------------------|
A|----------------------|
E|----------------------|

VERSE
E|--------------------------------------------|
B|--------------------------------------------|
G|--------------------------------------------|
D|-10-10--10-10--10-10--10-10--10-10--10-10---|
A|--------------------------------------------|
E|--------------------------------------------|

BEGIN CHORUS
E|---------------------------------------|
B|---------------------------------------|
G|-5-5-5----5-5-5----2-2-2-2-2-2---------|
D|-5-5-5----5-5-5----2-2-2-2-2-2-3-3-5-5-|
A|-3-3-3----2-2-2----0-0-0-0-0-0-3-3-5-5-|
E|-------------------------------1-1-3-3-|

CHORUS
E|---------------------------------------------|
B|---------------------------------------------|
G|-5-5-5-5-5-5-5-5-5-5-5-5-2-2-2-2-2-2---------|
D|-5-5-5-5-5-5-5-5-5-5-5-5-2-2-2-2-2-2-3-3-5-5-|
A|-3-3-3-3-3-3-2-2-2-2-2-2-0-0-0-0-0-0-3-3-5-5-|
E|-------------------------------------1-1-3-3-|

PRELUDE 1
E|---------------------------------|
B|---------------------------------|
G|-5-5-5-5-------------------------|
D|-5-5-5-5-2-2-2-2-3-3-3-3-5-5-5-5-|
A|-3-3-3-3-2-2-2-2-3-3-3-3-5-5-5-5-|
E|---------0-0-0-0-1-1-1-1-3-3-3-3-|

PRELUDE 2
E|-------------------------------------------------|
B|-------------------------------------------------|
G|-5-5-5-5-5-5-10-10-10-5-5-11-11-11-5-5-7-7-7-7-7-|
D|-5-5-5-5-5-5-10-10-10-5-5-11-11-11-5-5-7-7-7-7-7-|
A|-3-3-3-3-3-3-7--7--7--3-3-8--8--8--3-3-5-5-5-5-5-|
E|-------------------------------------------------|

STRUCTURE
INTRO X2
VERSE (NO GUITAR) X2
VERSE (GUITAR) X2
BEGIN CHORUS X2
CHORUS X2
INTRO X2
VERSE (NO GUITAR) X2
VERSE (GUITAR) (PALM MUTE) X2
BEGIN CHORUS X2
CHORUS X2
PRELUDE 1 (PALM MUTE) X2
PRELUDE 2 X4
BEGIN CHORUS X2
CHORUS X2

HAPPY HOLIDAYS, YOU BASTARDS
BLINK 182
BY PABLEX

VERSE
E|-----------------------------------------------------------|
B|-----------------------------------------------------------|
G|-4-4-4-4-4-4----------4-4-4-4-4-4--------------------------|
D|-4-4-4-4-4-4-4-4-4-4--4-4-4-4-4-4---4-4-4-4--6-6-6---2-2-2-|
A|-2-2-2-2-2-2-4-4-4-4--2-2-2-2-2-2---4-4-4-4--6-6-6---2-2-2-|
E|-------------2-2-2-2----------------2-2-2-2--4-4-4---0-0-0-|

CHORUS
E|---------------------------------|
B|---------------------------------|
G|-4-4-4-4-------------------------|
D|-4-4-4-4-4-4-4-4-2-2-2-2-2-2-2-2-|
A|-2-2-2-2-4-4-4-4-2-2-2-2-2-2-2-2-|
E|---------2-2-2-2-0-0-0-0-0-0-0-0-|

STRUCTURE
VERSE X 1
CHORUS X 4
VERSE X 1
CHORUS X 4

STORY OF A LONELY GUY
BLINK 182
BY PABLEX

INTRO
E|---5-7----5-7-5---5-7----5-7-5-|
B|-5------5-------5------5-------|
G|-------------------------------|
D|-------------------------------|
A|-------------------------------|
E|-------------------------------|

VERSE
E|-------------------------------------------------|
B|-------------------------------------------------|
G|-------------------------------------------------|
D|-2-2-2-2-2-2-4-4-4-4-4-4-6-6-6-6-6-6-7-7-7-7-7-7-|
A|-0-0-0-0-0-0-2-2-2-2-2-2-4-4-4-4-4-4-5-5-5-5-5-5-|
E|-------------------------------------------------|

PRELUDE
E|-----------------------------------------|
B|-----------------------------------------|
G|-----------------------------------------|
D|---7-----7---7-----7---7-----7---7-----7-|
A|-4---4-4---5---5-5---0---0-0---7---7-7---|
E|-----------------------------------------|

CHORUS
E|-------------------------------------------------|
B|-------------------------------------------------|
G|-------------9-9-9-9-9-9-------------7-7-7-7-7-7-|
D|-7-7-7-7-7-7-9-9-9-9-9-9-4-4-4-4-4-4-7-7-7-7-7-7-|
A|-7-7-7-7-7-7-7-7-7-7-7-7-4-4-4-4-4-4-5-5-5-5-5-5-|
E|-5-5-5-5-5-5-------------2-2-2-2-2-2-------------|

OUTRO
E|---------------------------------------------------------|
B|---------------------------------------------------------|
G|---------------------9-9-9-9---------------------9-9-9-9-|
D|---7-----7---7-----7-9-9-9-9---7-----7---7-----7-9-9-9-9-|
A|-4---4-4---5---5-5---7-7-7-7-4---4-4---5---5-5---7-7-7-7-|
E|---------------------------------------------------------|

E|-------------------------------------------------------------|
B|-------------------------------------------------------------|
G|-------------------------------------------------------------|
D|---7-----7---7-----7---7-----7---7-----7---7-----7---7-----7-|
A|-4---4-4---5---5-5---7---7-7---7---7-7---4---4-4---5---5-5---|
E|-------------------------------------------------------------|

STRUCTURE
INTRO X1
VERSE (PALM MUTE) X4
PRELUDE X2
CHORUS X4
INTRO X1
VERSE (PALM MUTE) X4
PRELUDE X2
CHORUS X4
OUTRO X1
CHORUS X6

THE ROCK SHOW
BLINK 182
BY PABLEX

INTRO
E|-----------------------|
B|-----------------------|
G|-----------------------|
D|-----------------------|
A|-0000---7777-5555-4754-|
E|-----------------------|

BEGIN VERSE
E|-----------------|
B|-----------------|
G|-7-7-7-7-7-7-7-7-|
D|-7-7-7-7-7-7-7-7-|
A|-5-5-5-5-5-5-5-5-|
E|-----------------|

VERSE
E|-------------------------|
B|-------------------------|
G|---------7-X-X-X-9-X-X-X-|
D|-7-X-X-X-7-X-X-X-9-X-X-X-|
A|-7-X-X-X-5-X-X-X-7-X-X-X-|
E|-5-X-X-X-----------------|

CHORUS
E|---------------------|
B|---------------------|
G|---------------7-7-7-|
D|-7--7--7-4-4-4-7-7-7-|
A|-7--7--7-4-4-4-5-5-5-|
E|-5--5--5-2-2-2-------|

END CHORUS
E|---------------------------------------------|
B|---------------------------------------------|
G|-9-X-X-X-7-X-X-X-9-X-X-X-7-X-X-X-9-X-X-X-7-6-|
D|-9-X-X-X-7-X-X-X-9-X-X-X-7-X-X-X-9-X-X-X-7-6-|
A|-7-X-X-X-5-X-X-X-7-X-X-X-5-X-X-X-7-X-X-X-5-4-|
E|---------------------------------------------|

OUTRO
E|----------0-----------0-----------0-----------0---|
B|-2----2-------2---2-------2---2-------2---2-------|
G|---2----2---2---2---2---2---2---2---2---2---2---2-|
D|--------------------------------------------------|
A|--------------------------------------------------|
E|--------------------------------------------------|

OUTRO 2
E|-------------------------------------------------|
B|-------------------------------------------------|
G|-------------7-7-7-7-7-7-------------9-9-9-7-7-7-|
D|-4-4-4-4-4-4-7-7-7-7-7-7-7-7-7-7-7-7-9-9-9-7-7-7-|
A|-4-4-4-4-4-4-5-5-5-5-5-5-7-7-7-7-7-7-7-7-7-5-5-5-|
E|-2-2-2-2-2-2-------------5-5-5-5-5-5-------------|

STRUCTURE
INTRO X4
BEGIN VERSE (PALM MUTE) X1
VERSE X2
INTRO X4
VERSE (NO GUITAR) X2
CHORUS 	X3
END CHORUS X1
INTRO X4
VERSE X2
CHORUS 	X3
END CHORUS X1
OUTRO 1 X1
OUTRO 2 X1
CHORUS X3
END CHORUS X1
INTRO X...

STAY TOGETHER FOR THE KIDS
BLINK 182
BY PABLEX

INTRO
E|-------------------------------------------------------------------|
B|-------------------------------------------------------------------|
G|-------7---------------7-------------------------------------------|
D|---7-----7---7-----7-----7---7---------9-----------------7-5-4-----|
A|-5---5-----5---5-4---4-----4---4---9-----9---9-----7---7-------7-5-|
E|---------------------------------7---7-----7---7-5---5-------------|

VERSE 1
E|-----------------------------------------|
B|-----------------------------------------|
G|----7----7----7----7----7----7----7----7-|
D|-----------------------------------------|
A|-55---55---55---55-----------------------|
E|---------------------55---55---55---55---|

E|-----------------------------------------|
B|-----------------------------------------|
G|------------------------9----9----7----7-|
D|----7----7----7----7---------------------|
A|-----------------------------------------|
E|-55---55---55---55---55---55---55---55---|

CHORUS
E|---------------------------------|
B|---------------------------------|
G|---------------------------------|
D|-5-5-5-5-5-5-5-5-4-4-4-4-4-4-4-4-|
A|-5-5-5-5-5-5-5-5-4-4-4-4-4-4-4-4-|
E|-3-3-3-3-3-3-3-3-2-2-2-2-2-2-2-2-|

VERSE 2
E|---------------------------------|
B|---------------------------------|
G|---7---7---7---7---7---7---7---7-|
D|---------------------------------|
A|-5---5---5---5-------------------|
E|-----------------5---5---5---5---|

E|---------------------------------|
B|---------------------------------|
G|---------------------------------|
D|---7---7---7---7---7---7---7---7-|
A|---------------------------------|
E|-5---5---5---5---5---5---5---5---|

PRELUDE 1
E|------------------|
B|------------------|
G|--------7---------|
D|----7-----7---7---|
A|--5---5-----5---5-|
E|------------------|

PRELUDE 2
E|------------------|
B|------------------|
G|-7~-----9~-----7~-|
D|-7~-----9~-----7~-|
A|-5~-----7~-----5~-|
E|------------------|

STRUCTURE
INTRO X2
VERSE 1 X2
CHORUS X 4
INTRO X2
VERSE 2 X2
CHORUS X4
PRELUDE X...
CHORUS X...

ROLLER COASTER
BLINK 182
BY PABLEX
[ Tab from: http://www.guitartabs.cc/tabs/b/blink_182/take_off_your_pants_and_jacket_tab.html ]
INTRO
E|-----------------|
B|-2---2-3-2-------|
G|---2-------2-1-2-|
D|-----------------|
A|-----------------|
E|-----------------|

VERSE
E|-----------------------------------------|
B|-----------------------------------------|
G|-----------------------------------------|
D|----7----7----7----7----7----7----7----7-|
A|-----------------------------------------|
E|-55---55---55---55---55---55---55---55---|

E|-----------------------------------------|
B|-----------------------------------------|
G|-----------------------------------------|
D|----7----7----7----7----4----4----7----7-|
A|-55---55---55---55---22---22---55---55---|
E|-----------------------------------------|

PRELUDE
E|-----------------|
B|-----------------|
G|-----------------|
D|-----------------|
A|-4---4-5-4-------|
E|---5-------5-5-5-|

CHORUS/VERSE
E|-----------------------------------------|
B|-----------------------------------------|
G|-----------7-7-7-7-7-4-4-4-4-4-7-7-7-7-7-|
D|-7-7-7-7-7-7-7-7-7-7-4-4-4-4-4-7-7-7-7-7-|
A|-7-7-7-7-7-5-5-5-5-5-2-2-2-2-2-5-5-5-5-5-|
E|-5-5-5-5-5-------------------------------|

STRUCTURE
INTRO X2
VERSE 1 X 2
PRELUDE X8
VERSE 2 X2
CHORUS X2
PRELUDE X8
VERSE 2 X2
CHORUS X2
VERSE 1 X2
BREAK (NO GUITAR)
VERSE 2 X2
CHORUS X 2
CHORDS VERSE 2 IN TIME OF VERSE 1 X2 
INTRO X2

RECKLESS ABANDON
BLINK 182
BY PABLEX

PRELUDE
E|------------------------------------------|
B|------------------------------------------|
G|------------------------------------------|
D|-----4---------4---------4----------------|
A|-6------7--6------7--6------7--6--6-7-4---|
E|---7---------7---------7------------------|

VERSE
E|---------------------------------|
B|---------------------------------|
G|-4-4-4-4-4-4-4-4-----------------|
D|-4-4-4-4-4-4-4-4-4-4-4-4-4-4-4-4-|
A|-2-2-2-2-2-2-2-2-4-4-4-4-4-4-4-4-|
E|-----------------2-2-2-2-2-2-2-2-|

CHORUS
  1
E|---------------------------------|----------|
B|---------------------------------|----------|
G|-----------------9-9-9-9-9-9-9-9-|:---------|
D|-9-9-9-9-9-9-9-9-9-9-9-9-9-9-9-9-|:-6-6-6-6-|
A|-9-9-9-9-9-9-9-9-7-7-7-7-7-7-7-7-|--6-6-6-6-|
E|-7-7-7-7-7-7-7-7-----------------|--4-4-4-4-|

                            2 
E|--------------------------|--------------------|
B|--------------------------|--------------------|
G|---------9-9-9-9-9-9-9-9-:|-----------------9--|
D|-4-4-4-4-9-9-9-9-9-9-9-9--|-6-6-6-6-4-4-4-4-9--|
A|-4-4-4-4-7-7-7-7-7-7-7-7--|-6-6-6-6-4-4-4-4-7--|
E|-2-2-2-2------------------|-4-4-4-4-2-2-2-2----|

INTERLUDE
E|------------------|---|
B|------------------|---|
G|------------------|---|
D|-9---------9----4-|-9-|
A|------------------|---|
E|-7----0----7----2-|-7-|

STRUCTURE
CHORUS 1 X1
PRELUDE X 2
VERSE X2
CHORUS 1 X1
CHORUS 2 X1
PRELUDE X2
VERSE X2
CHORUS 1 X1
CHORUS 2 X1
INTERLUDE X4
VERSE X2
CHORUS 1 X1
CHORUS 2 X1

EVERY TIME I LOOK FOR YOU
BLINK 182
BY PABLEX

INTRO
E|-----------|
B|-----------|
G|-4-44-44-4-|
D|-4-44-44-4-|
A|-2-22-22-2-|
E|-----------|

PRELUDE
E|---------------------------------------|
B|-0---5-4-0---5-4-0---5-4-0---5-4-0-2-4-|
G|---------------------------------------|
D|---------------------------------------|
A|---------------------------------------|
E|---------------------------------------|

FINISH VERSE
E|--------------------------|
B|--------------------------|
G|-----8-----8-----8--------|
D|---9-----9-----9-----11-9-|
A|-7-----7-----7-----7------|
E|--------------------------|

CHORUS
E|-------------------------------------------------|---------------------|
B|-------------------------------------------------|---------------------|
G|-------------------------------------------------|-9-9-9-9-9-9-9-9-9-9-|
D|-9-9-9-9-9-9-9-9-9-9-9-9-9-9-9-9-9-9-9-9-9-9-9-9-|-9-9-9-9-9-9-9-9-9-9-|
A|-9-9-9-9-9-9-9-9-9-9-9-9-9-9-9-9-9-9-9-9-9-9-9-9-|-7-7-7-7-7-7-7-7-7-7-|
E|-7-7-7-7-7-7-7-7-7-7-7-7-7-7-7-7-7-7-7-7-7-7-7-7-|---------------------|

OUTRO
E|----------------------------------------------|
B|----------------------------------------------|
G|-----------------8-8-8-8-8-8-11-9-9-9-9-9-9-9-|
D|-9-9-9-9-9-9-9-9-8-8-8-8-8-8-11-9-9-9-9-9-9-9-|
A|-9-9-9-9-9-9-9-9-6-6-6-6-6-6-9--7-7-7-7-7-7-7-|
E|-7-7-7-7-7-7-7-7------------------------------|

STRUCTURE
INTRO X8
BREAK (NO GUITAR)
PRELUDE X2
VERSE (NO GUITAR) X2
FINISH VERSE X2
CHORUS X1
PRELUDE X2
VERSE (NO GUITAR) X2
FINISH VERSE X2
CHORUS X1
OUTRO (CLEAN) X2
OUTRO (DIST.) X4
FINISH CHORUS (JUST B5)

GIVE ME ONE GOOD REASON
BLINK 182
BY PABLEX

INTRO
E|-------------------------------------------------|
B|-------------------------------------------------|
G|---9-----9-----9-----9-----9-----9-----9-----9---|
D|-------9---9-------9---9-------9---9-------9---9-|
A|-9---9-------7---7-------9---9-------7---7-------|
E|-------------------------------------------------|

E|-----------------------------------------------------|
B|-----------------------------------------------------|
G|----9------9-----9-----9------9------9-----9-----9---|
D|---------9---9-------9---9---------9---9-------9---9-|
A|-11---11-------9---9-------11---11-------9---9-------|
E|-----------------------------------------------------|

VERSE
E|-----------------------------------------------------|
B|-----------------------------------------------------|
G|-----------------------------------------------------|
D|--------4-4-4---------4-4-4--6-6-6-2-2-2-6-6-6-2-2-2-|
A|-2-2-2--2-2-2--2-2-2--2-2-2--4-4-4-0-0-0-4-4-4-0-0-0-|
E|-0-0-0---------0-0-0---------------------------------|

PRELUDE
E|---------------------|
B|---------------------|
G|---------4-----------|
D|---------4-X-X-1-1-2-|
A|-2-2-2-2-------------|
E|-0-0-0-0-------------|

CHORUS
E|-------------------------------------|
B|-------------------------------------|
G|-------------4-4-4-4-4-4-9-9-9-9-9-9-|
D|-2-2-2-2-2-2-4-4-4-4-4-4-9-9-9-9-9-9-|
A|-2-2-2-2-2-2-2-2-2-2-2-2-7-7-7-7-7-7-|
E|-0-0-0-0-0-0-------------------------|

OUTRO
E|--------------------------------------------------------|
B|--------------------------------------------------------|
G|--------------------------------------------------------|
D|-2-2-4-4-6-6-7-7-6--2-2----2-2-4-4-6-6-7-7-6-2--4--6--2-|
A|-------------------------2------------------------------|
E|--------------------------------------------------------|

STRUCTURE
INTRO X1
VERSE (PALM MUTE) X1
PRELUDE X2
INTRO X1
VERSE (PALM MUTE) X1
PRELUDE X2
CHORUS X4
INTRO X1
VERSE (PALM MUTE) X1
PRELUDE X4
CHORUS X4
OUTRO X2
CHORUS X4

SHUT UP
BLINK 182
BY PABLEX

INTRO
E|-----------------------|
B|-----------------------|
G|-----------------------|
D|-7-7-7-7-7-7-7-7-7-7-7-|
A|-----------------------|
E|-----------------------|

PRELUDE
E|-----0-----0-----0-----0-------0-------0-|
B|-----------------------------------------|
G|-----------------------------------------|
D|-----------------------------------------|
A|-----------------------------------------|
E|-5-5---5-5---9-9---9-9---10-10---10-10---|

VERSE *
E|-------------------------------------------------|
B|-------------------------------------------------|
G|-------------------------------------------------|
D|-------------------------------------------------|
A|-7-7-7-7-7-7-11-11-11-11-11-11-12-12-12-12-12-12-|
E|-5-5-5-5-5-5-9--9--9--9--9--9--10-10-10-10-10-10-|

CHORUS 
E|---------------------------------------------------------|
B|-----------------10-10-10-10-----------------10-10-10-10-|
G|-7-7-7-7---------9--9--9--9--7-7-7-7---------9--9--9--9--|
D|-7-7-7-7-7-7-7-7-7--7--7--7--7-7-7-7-7-7-7-7-7--7--7--7--|
A|-5-5-5-5-7-7-7-7-------------5-5-5-5-7-7-7-7-------------|
E|---------5-5-5-5---------------------5-5-5-5-------------|

E|-----------------------------------------|
B|-----------------------------------------|
G|---------10-10-10-10---------10-10-10-10-|
D|-9-9-9-9-10-10-10-10-9-9-9-9-10-10-10-10-|
A|-9-9-9-9-12-12-12-12-9-9-9-9-12-12-12-12-|
E|-7-7-7-7-------------7-7-7-7-------------|

OUTRO 1
E|---------------------------------|
B|---------------------------------|
G|-9-9-9-9-9-9-11-11-11-11-7-7-7-7-|
D|-9-9-9-9-9-9-11-11-11-11-7-7-7-7-|
A|-7-7-7-7-7-7-9--9--9--9--5-5-5-5-|
E|---------------------------------|

OUTRO 2
E|----------------------------------------------------------|
B|-10-10-10-10-10-10-9-9-9-7-7-7-14-14-14-14-14-14-12-12-12-|
G|----------------------------------------------------------|
D|-7--7--7--7--7--7--6-6-6-4-4-4-11-11-11-11-11-11-9--9--9--|
A|----------------------------------------------------------|
E|----------------------------------------------------------|

E|-------------------------------------------------------------------|
B|-10-10-10-10-10-10-9-9-9-7-7-7-14-14-14-14-14-14-12-12-12-15-15-15-|
G|-------------------------------------------------------------------|
D|-7--7--7--7--7--7--6-6-6-4-4-4-11-11-11-11-11-11-9--9--9--12-12-12-|
A|-------------------------------------------------------------------|
E|-------------------------------------------------------------------|

STRUCTURE
INTRO X1
PRELUDE X4
VERSE (NO GUITAR) X4
PRELUDE X3
VERSE (NO GUITAR) X4
CHORUS X1
VERSE * X4
CHORUS X1
OUTRO 1 X6
OUTRO 2 X1
CHORUS X1
PRELUDE X4

PLEASE TAKE ME HOME
BLINK 182
BY PABLEX

VERSE
E|---------------------------------------------|
B|---------------------------------------------|
G|-4/8-8-8-8-8-8-8-8-8-8-8-8-8-8-8/4-4-4-4-4-4-|
D|-4/8-8-8-8-8-8-8-8-8-8-8-8-8-8-8/4-4-4-4-4-4-|
A|-2/6-6-6-6-6-6-6-6-6-6-6-6-6-6-6/2-2-2-2-2-2-|
E|---------------------------------------------|

BREAK
E|-------------------------------------------------------------|
B|-------------------------------------------------------------|
G|-------------------------------------------------------4-----|
D|-2-2-2-2-2---9-9-9-9-9---6-6-6-6-6---4-4-4-4-4---2-----4---4-|
A|-2-2-2-2-2---9-9-9-9-9---6-6-6-6-6---4-4-4-4-4---2-----2---4-|
E|-0-0-0-0-0---7-7-7-7-7---4-4-4-4-4---2-2-2-2-2---0---------2-|

CHORUS
E|---------------------------------|
B|---------------------------------|
G|---------------------------------|
D|-9-9-9-9-9-9-9-9-6-6-6-6-2-2-2-2-|
A|-9-9-9-9-9-9-9-9-6-6-6-6-2-2-2-2-|
E|-7-7-7-7-6-6-6-6-4-4-4-4-0-0-0-0-|

PRELUDE 1
E|-----------------------------------------|
B|-----------------------------------------|
G|-----4-4-----4-4-----4-4-----4-4-----4-4-|
D|-4-4-2-2-4-4-2-2-4-4-2-2-4-4-2-2-4-4-2-2-|
A|-2-2-----2-2-----2-2-----2-2-----2-2-----|
E|-----------------------------------------|

PRELUDE 2
E|----------------------------------|
B|----------------------------------|
G|----------------------------------|
D|-4-4-4-4-6-6-6-6-8-8-8-8-9-9-8-88-|
A|-2-2-2-2-4-4-4-4-6-6-6-6-7-7------|
E|----------------------------------|

OUTRO 1
E|---------------------------------------------|
B|---------------------------------------------|
G|-------------------------8-8-8-8-8-8-6--4--6-|
D|-9-9-9-9-9-9-9-9-9-9-9-9-8-8-8-8-8-8-6--4--6-|
A|-9-9-9-9-9-9-9-9-9-9-9-9-6-6-6-6-6-6-4--2--4-|
E|-7-7-7-7-7-7-6-6-6-6-6-6---------------------|

OUTRO 2
E|---------------------------------------------|
B|---------------------------------------------|
G|-8-8-8-8-8-8-8-8-8-8-8-8-8-8-8-8-8-8-4-4-4-4-|
D|-8-8-8-8-8-8-8-8-8-8-8-8-8-8-8-8-8-8-4-4-4-4-|
A|-6-6-6-6-6-6-6-6-6-6-6-6-6-6-6-6-6-6-2-2-2-2-|
E|---------------------------------------------|

STRUCTURE
VERSE X2
VERSE X4
BREAK X1
CHORUS X2
VERSE X4
BREAK X1
CHORUS X4
PRELUDE 1 X2
PRELUDE 2 (PALM MUTE) X2
OUTRO 1 X2
OUTRO 2 X2
CHORUS X4
Comments