Blink 182 - Strings Chords & Tabs

 

Strings Chords & Tabs

Blink 182 Chords & Tabs

Version: 3 Type: Tab 0 ratings
1 star 2 stars 3 stars 4 stars 5 stars
comments

Strings Tab

Blink 182 - Strings


Intro:

e|----------------------------|
B|----------------------------|
G|-7-----9--12----------------|
D|-7--7--9--12----------------|
A|-5--7--7--10----------------|
E|----5-----------------------|


Verses:

e|---------------------------------|
B|---------------------------------|
G|-7---7-------7-----7-----7-----7-|
D|--7---6--4-5---4-5---4-5---4-5---|
A|---------------------------------|
E|---------------------------------|


Chorus:

e|----------------------------|
B|----------------------------|
G|-55555555-------------------|
D|-55555555-33333333----------|Guitar 1
A|-33333333-33333333----------|
E|----------11111111----------|


e|----------------------------|
B|----------------------------|
G|-12-12-12-12--10-10--9-9----|
D|--x--x--x--x---x--x--x-x----|Guitar 2
A|-10-10-10-10---8--8--7-7----|
E|----------------------------|


End on C for interlude:
[ Tab from: http://www.guitartabs.cc/tabs/b/blink_182/strings_tab_ver_3.html ]
e|---------------------------------------------------------------|
B|---------------------------------------------------------------|
G|---------------------------------------------------------------|
D|-------------------------7-7-5-4-------5-4---5-4---5-4---5-4---|
A|-5-4-5-4-5-7-5-4-5-4-5-7---------7-5-4-----5-----5-----5-----5-|
E|---------------------------------------------------------------|


e|---------------------------------------------------------------------------|
B|---------------------------------------------------------------------------|
G|-7-6---7-6---7-6---7-6---(don't know how many x)--7-7-6--------------------|
D|-----7-----7-----7-----7--------------------------------7-5-5-4-5-5-4-2-0--|
A|---------------------------------------------------------------------------|
E|---------------------------------------------------------------------------|

the end might be wrong but it looks like i'm the only one bothered to tab the solo, so shut up.

-------------------------------------------------------------------------------------------------
questions, comments, email me at taxi-gurl@mbox.com.au
emma watson, i love you!
Comments