Blink 182 - Strings Chords & Tabs

 

Strings Chords & Tabs

Blink 182 Chords & Tabs

Version: 1 Type: Tab 0 ratings
1 star 2 stars 3 stars 4 stars 5 stars
comments

Strings Tab

   
                              "Strings"
                             by blink 182
                           Buddha,Cheshire Cat


D5,A5,E5,G5

Intro/Verse (Riff 1)
e-----------------------------------|
b-----------------------------------|
g-7---6--------7-----7-----7-----7--|
d---7---7--4-5---4-5---4-5---4-5----|
a-----------------------------------|
e-----------------------------------|

Verse (If you wnat to play chords)
D5                      A5
I would do anything and that's what scares me so bad
E5                         G5
Don't wanna live my life alone don't wanna go back to what I had
D5                                 A5
Don't wanna spend my life without all those special things
E5                       G5
Don't wanna walk around being tied to anyone else's...
[ Tab from: http://www.guitartabs.cc/tabs/b/blink_182/strings_tab.html ]
C5                              Fii5
Striiiiiiiiiiiiiiiings  Strings

Solo:(This is just a solo I improvised by playing it one day)
The notes have a certain rhythm
e--------------------------------------------------|
b--------------------------------------------------|
g--------------------------------------------------|
d--------------------------------------------------|
a-5-4-5-4-5-4-5-4------------------7-6-7-6-7-6-7-6-|
e------------------5-4-5-4-5-4-5-4-----------------|

e----------------------------------------------------------------|
b----------------------------------------------------------------|
g----------------------------------------------------------------|
d-12-11-12-11-12-11-12-11-12-14-12-11-12-11-12-11-------7-----7--|
a---------------------------------------------------4-5---4-5----|
e----------------------------------------------------------------|

That's how I play it,The root notes are D,A,E,G if you want to try it

Matt Nielsen zorg500@hotmail.com
Comments