Blink 182 - Story Of A Lonely Guy Chords & Tabs

 

Story Of A Lonely Guy Chords & Tabs

Blink 182 Chords & Tabs

Version: 9 Type: Tab 0 ratings
1 star 2 stars 3 stars 4 stars 5 stars
comments

Story Of A Lonely Guy Tab

blink 182/ story of a lonely guy  ver.3.
 Tabbed by kyle  clownaround125@aol.com.
  
~ palm mute
* slide
xx  play fast

                       
                       intro

[]-0-0-0-5-5-5-7-7-7-7-7-7-0-0-0-5-5-5-7-7-7-5-5-5-5-5-5-
[]----------------------------------------------------
[]----------------------------------------------------
[]----------------------------------------------------
[]----------------------------------------------------
[]----------------------------------------------------

                       verse 1,2,3

[]------------------------------------
[]------------------------------------
[]------------------------------------
[]-2-------4----------6-------------7-
[]-0-------2----------4-------------5-
[]------------------------------------ play each 8x
  ~~~~~~~~~~~~~~~~~~~~~~~~~~~~~~~~~~~~

                   pre chorus
[ Tab from: http://www.guitartabs.cc/tabs/b/blink_182/story_of_a_lonely_guy_tab_ver_9.html ]
[]---------------------------------------
[]---------------------------------------
[]---------------------------------------
[]-7---------7-----------7-------------9-
[]-4---------5-----------0-------------7-
[]--------------------------------------- play each 8x
                                      ****
                 chorus

[]-------------------------------------
[]-------------------------------------
[]---------9-------------7-------------
[]---7-----9------5------7-------------
[]---7-----7------5------5-------------
[]---5------------3-------------------- play each 8x

                    interclude
[]----------|-----------------------------------------
[]----------|-----------------------------------------
[]----------|-9-9-9-9-9-9-9-9-9-9-9-9-9-9-9-9---------
[]-7-----7--|-9-9-9-9-9-9-9-9-9-9-9-9-9-9-9-9---------
[]-4-----5--|-7-7-7-7-7-7-7-7-7-7-7-7-7-7-7-7---------
[]----------|-----------------------------------------
    ^         xx  xx  xx  xx  xx  xx  xx  xx 
    8x each

                      ending

[]-------------------------------
[]-------------------------------
[]----------4---------------7----
[]--7-------4-------8-------7----
[]--7-------2-------8-------5----
[]--5---------------6------------ play each 8x


 
:: Ultimate Guitar Archive :: 
http://www.ultimate-guitar.com 



Comments