Blink 182 - Story Of A Lonely Guy Chords & Tabs

 

Story Of A Lonely Guy Chords & Tabs

Blink 182 Chords & Tabs

Version: 8 Type: Tab 0 ratings
1 star 2 stars 3 stars 4 stars 5 stars
comments

Story Of A Lonely Guy Tab

Blink 182, Story of a lonley guy.
 Tabbed by Alex, howdoyado44@hotmail.com.
  
I've seen a lot of versions of this on the internet and some of them were close to correct but this is 100% Correct.


INTRO                
e|----------------------------------------------------
B|----------------------------------------------------
G|----------------------------------------------------
D|----777-999999999--------999------------------------
A|-777-----------------777-----777777-----------------
E|------------------777-------------------------------|

VERSE
e|----------------------------------------------------
B|----------------------------------------------------
G|----------------------------------------------------
D|----------------------------------------------------
A|-77777777-99999999-11-11-11-11-11-11-11-11----------
E|-55555555-77777777- 9--9--9--9--9--9--9--9----------
   P.M.>>>>>>>>>>>>>>>>>>>>>>>>>>>>>>>>>>>>>

VERSE (CONTINUED)
e|----------------------------------------------------
B|----------------------------------------------------
G|----------------------------------------------------
D|----------------------------------------------------
A|12-12-12-12-12-12-12-12-----------------------------
E|10-10-10-10-10-10-10-10-----------------------------
  P.M.>>>>>>>>>>>>>>>>>>>

Bridge
e|----------------------------------------------------
B|----------------------------------------------------
G|----------------------------------------------------
D|----7----7-----7-----7------------------9-----9-7---
A|-44--444---455---555---5---7-----7---77---777-------
E|------------------------55---555---5----------------

Chorus
e|----------------------------------------------------
B|----------------------------------------------------
G|----------9-9999-9----------7-7777-7----------------
D|-7-7777-7-9-9999-9-4-4444-4-7-7777-7----------------
A|-7-7777-7-7-7777-7-4-4444-4-5-5555-5----------------
E|-5-5555-5----------2-2222-2-------------------------
[ Tab from: http://www.guitartabs.cc/tabs/b/blink_182/story_of_a_lonely_guy_tab_ver_8.html ]
Bridge 2
e|----------------------------------------------------
B|----------------------------------------------------
G|--------------------------99999999------------------
D|----7-----7-----7-----7---99999999------------------
A|-44---444---455---555---5-77777777------------------
E|----------------------------------------------------

Bridge 3
e|----------------------------------------------------
B|----------------------------------------------------
G|----------------------------------------------------
D|----7-----7-----7-----7----7-----7-----7-----7------
A|-44---444---455---555--577---777---777---777---7----
E|----------------------------------------------------

OUTRO
e|----------------------------------------------------
B|----------------------------------------------------
G|----------9-9999-9----------777-777-777-777---------
D|-7-7777-7-9-9999-9-4-4444-4-777-777-777-777---7-----
A|-7-7777-7-7-7777-7-4-4444-4-555-555-555-555---7-----
E|-5-5555-5----------2-2222-2-------------------5-----

ORDER:

Intro 2x
Verse 4x
Bridge 2x
Chorus 4x
Intro 2x
Verse 4x
Bridge 2x
Chorus 4x
Bridge 2 2x
Bridge 3 2x
Chorus 5x
Outro 1x

LYRICS:

Verse 1:
Push it out fake a smile avert disaster just in time
I need a drink cuz in a while. wurthless answers from friends of mine it's dumb to ask cool to ignore. Girls posess mr but their never mine. I made my entrance avoided hazard checked my engine I fell behind.

Bridge:
Da DA Da Da Da DA Da Da Da Da Da Da (I fell behind) Da Da DA Da Da Da Da DA DA 
Da DA DA DA

Chorus:
She Makes me feel like it's raining outside (OH OH Oh oH)
And when the storms come i'm all tourn up inside (Oh Oh Oh Oh)
I'm always nervous on days like this like the prom
I get to scared to move cuz im a ******* boy.

Verse 2:
Remember when i was in the grocery store. Now's my timeLost the words lost the nerve lost the girl left the line.I would wish upon a star but that star it wouldn't shine.So read my book with a boring ending a short story of a lonley guy.

(BRIDGE)
(CHORUS)
(BRIDGE)

Chorus 2:
She makes me feel like it's raining outside (Oh Oh OH OH)
And when the storms come im all tourn up inside (Oh Oh OH Oh)
Im always nervous on days like this like the prom i get to
scared to move cuz im still just a stupid wurthless boy.

WELL THATS IT
 
:: Ultimate Guitar Archive :: 
http://www.ultimate-guitar.com 



Comments