Blink 182 - Story Of A Lonely Guy Chords & Tabs

 

Story Of A Lonely Guy Chords & Tabs

Blink 182 Chords & Tabs

Version: 4 Type: Tab 2 ratings
1 star 2 stars 3 stars 4 stars 5 stars
comments

Story Of A Lonely Guy Tab

Blink 182 - Story of a Lonely Guy

Please be brutal as this is my first tab and i need to learn.
I read many of the online tabs and found to be overcomplicating a simple song,
so please e-mail me with any corretions at: khaos_777@hotmail.com

Hope that its totally accurate, but REMEMBER BOYS AND GIRLS Blink 182 wrote this song and credit to MCA for their contract and publishing the great music. I wrote the tab not the song so i must give credit where credit is due...or face a large fine, which is nice. Thankyou.


STANDARD TUNING

Intro - Clean

e--------------------------------------------|
B-------10-10-10--12-12-12-12-12-12-12-12-12-|
G-9-9-9--------------------------------------|
D--------------------------------------------|
A--------------------------------------------|
E--------------------------------------------|

e--------------------------------------------|
b-------10-10-10--12-12-12-10-10-10-10-10-10-|
G-9-9-9--------------------------------------|
D--------------------------------------------|
A--------------------------------------------|
E--------------------------------------------|


Verse - PM - Slight Distortion

"Push it out, fake a smile...."

e-----------------|-----------------|-----------------|-----------------|
B-----------------|-----------------|-----------------|-----------------|
G-----------------|-----------------|-----------------|-----------------|
D-----------------|-----------------|-----------------|-----------------|x4
A-0-0-0-0-0-0-0-0-|-2-2-2-2-2-2-2-2-|-4-4-4-4-4-4-4-4-|-5-5-5-5-5-5-5-5-|
E-----------------|-----------------|-----------------|-----------------| 

Pre-chorus - Clean

"Da da da, Da da da...."

e-------------------------------------------------------------|
B-------------------------------------------------------------|
G-----2--------2------2-------2-------2------2-----2-------2--|
D-----------------0-0---0-0-0---0---------------7-7---7-7-7--7| x2
A-4-4----4-4-4--4-----------------0-0--0-0-0--0---------------|
E-------------------------------------------------------------|

Chorus - Distortion

"She makes me feel like it's raining outside...."
[ Tab from: http://www.guitartabs.cc/tabs/b/blink_182/story_of_a_lonely_guy_tab_ver_4.html ]
e-----------------|-----------------|-----------------|-----------------|-----------------|
B-----------------|-----------------|-----------------|-----------------|-----------------|
G-Pick-Scrape\\\\\|-----------------|-4-4-4-4-4-4-4-4-|-----------------|-----------------|
D-1st+2nd-Chorus\\|-2-2-2-2-2-2-2-2-|-2-2-2-2-2-2-2-2-|-----------------|-7-7-7-7-7-7-7-7-|
A-----------------|-0-0-0-0-0-0-0-0-|-----------------|-4-4-4-4-4-4-4-4-|-5-5-5-5-5-5-5-5-|
E-----------------|-----------------|-----------------|-2-2-2-2-2-2-2-2-|-----------------|

Bridge
                 CLEAN					   DISTORTION
e------------------|-------------------|---------------------------------|
B------------------|-------------------|---------------------------------|
G-----2-------2----|-------2-------2---|-9-9-9-9-9-9-9-9-9-9-9-9-9-9-9-9-|
D------------------|---0-0---0-0-0---0-|-9-9-9-9-9-9-9-9-9-9-9-9-9-9-9-9-|
A-4-4---4-4-4----4-|-------------------|-7-7-7-7-7-7-7-7-7-7-7-7-7-7-7-7-|
E------------------|-------------------|---------------------------------|
                 CLEAN					   DISTORTION
e------------------|-------------------|---------------------------------|
B------------------|-------------------|---------------------------------|
G-----2-------2----|------2--------2---|-9-9-9-9-9-9-9-9-9-9-9-9-9-9-9-9-|
D------------------|--0-0----0-0-0---0-|-9-9-9-9-9-9-9-9-9-9-9-9-9-9-9-9-|
A-4-4---4-4-4----4-|-------------------|-7-7-7-7-7-7-7-7-7-7-7-7-7-7-7-7-|
E------------------|-------------------|---------------------------------|
               ALL   CLEAN					   
e------------------|-------------------|---------------------------------|
B------------------|-------------------|---------------------------------|
G-----2-------2----|------2--------2---|-----2-------2-------2-------2---|
D------------------|--0-0----0-0-0---0-|---------------------------------|
A-4-4---4-4-4----4-|-------------------|-0-0---0-0-0---0-0-0---0-0-0---0-|
E------------------|-------------------|---------------------------------|

e------------------|
B------------------|
G-----2-------2----|
D------------------|
A-4-4---4-4-4----4-|
E------------------| 


Ending (I am Just a..)

      Stu-pid     |    Worth-less   |  Boy |

E-----------------|-----------------|------|
B-----------------|-----------------|------|
G---------4-4-----|----------4-4----|------|
D-7-7-----2-2-----|-7-7------2-2----|-2----|
A-5-5-------------|-5-5-------------|-0----|
E-----------------|-----------------|------|

Comments