Blink 182 - Story Of A Lonely Guy Chords & Tabs

 

Story Of A Lonely Guy Chords & Tabs

Blink 182 Chords & Tabs

Version: 16 Type: Tab 0 ratings
1 star 2 stars 3 stars 4 stars 5 stars
comments

Story Of A Lonely Guy Tab

----------------------------------------------------------------------------
BLINK 182 - Story of a lonely guy
----------------------------------------------------------------------------

|-------------------------|-------------------------| 
|----------10-10-10-12-12-|-12-12-12-12-12-12-12-12-|
|-9--9--9-----------------|-------------------------|
|-------------------------|-------------------------|
|-------------------------|-------------------------|
|-------------------------|-------------------------|

|-------------------------|-------------------------|
|----------10-10-10-12-12-|-12-10-10-10-10-10-10-10-|
|-9--9--9-----------------|-------------------------|
|-------------------------|-------------------------|
|-------------------------|-------------------------|
|-------------------------|-------------------------|

|-------------------------|-------------------------| 
|----------10-10-10-12-12-|-12-12-12-12-12-12-12-12-|
|-9--9--9-----------------|-------------------------|
|-------------------------|-------------------------|
|-------------------------|-------------------------|
|-------------------------|-------------------------|

|-------------------------|-------------------------|
|----------10-10-10-12-12-|-12-10-10-10-10-10-10-10-|
|-9--9--9-----------------|-------------------------|
|-------------------------|-------------------------|
|-------------------------|-------------------------|
|-------------------------|-------------------------|

____________________________________________________________________________


Palmmute the whole verse
|-------------------------|-------------------------|
|-------------------------|-------------------------|
|-------------------------|-------------------------|
|-------------------------|-------------------------|
|-0--0--0--0--0--0--0--0--|-2--2--2--2--2--2-2--2--|
|-------------------------|-------------------------|

|-------------------------|-------------------------|
|-------------------------|-------------------------|
|-------------------------|-------------------------|
|-------------------------|-------------------------|
|-4--4--4--4--4--4--4--4--|-5-5--5--5--5--5--5--5--|
|-------------------------|-------------------------|

|-------------------------|-------------------------|
|-------------------------|-------------------------|
|-------------------------|-------------------------|
|-------------------------|-------------------------|
|-0--0--0--0--0--0--0--0--|-2--2--2--2--2--2-2--2--|
|-------------------------|-------------------------|

|-------------------------|-------------------------|
|-------------------------|-------------------------|
|-------------------------|-------------------------|
|-------------------------|-------------------------|
|-4--4--4--4--4--4--4--4--|-5-5--5--5--5--5--5--5--|
|-------------------------|-------------------------|

|-------------------------|-------------------------|
|-------------------------|-------------------------|
|-------------------------|-------------------------|
|-------------------------|-------------------------|
|-0--0--0--0--0--0--0--0--|-2--2--2--2--2--2-2--2--|
|-------------------------|-------------------------|

|-------------------------|-------------------------|
|-------------------------|-------------------------|
|-------------------------|-------------------------|
|-------------------------|-------------------------|
|-4--4--4--4--4--4--4--4--|-5-5--5--5--5--5--5--5--|
|-------------------------|-------------------------|

|-------------------------|-------------------------|
|-------------------------|-------------------------|
|-------------------------|-------------------------|
|-------------------------|-------------------------|
|-0--0--0--0--0--0--0--0--|-2--2--2--2--2--2-2--2--|
|-------------------------|-------------------------|

|-------------------------|-------------------------|
|-------------------------|-------------------------|
|-------------------------|-------------------------|
|-------------------------|-------------------------|
|-4--4--4--4--4--4--4--4--|-5-5--5--5--5--5--5--5--|
|-------------------------|-------------------------|

_____________________________________________________________________________

|-------------------------|-------------------------|
|-------------------------|-------------------------|
|-------2-----------2-----|-------2-----------2-----|
|-------------------------|-0--0-----0--0--0-----0--|
|-4--4-----4--4--4-----4--|-------------------------|
|-------------------------|-------------------------|

|-------------------------|-------------------------|
|-------------------------|-------------------------|
|-------2-----------2-----|-------2-----------2-----|
|-------------------------|-2--2-----2--2--2-----2--|
|-0--0-----0--0--0-----0--|-------------------------|
|-------------------------|-------------------------|

|-------------------------|-------------------------|
|-------------------------|-------------------------|
|-------2-----------2-----|-------2-----------2-----|
|-------------------------|-0--0-----0--0--0-----0--|
|-4--4-----4--4--4-----4--|-------------------------|
|-------------------------|-------------------------|

|-------------------------|-------------------------|
|-------------------------|-------------------------|
|-------2-----------2-----|-------2-----------2-----|
|-------------------------|-2--2-----2--2--2-----2--|
|-0--0-----0--0--0-----0--|-------------------------|
|-------------------------|-------------------------|

_____________________________________________________________________________


|-------------------------|-------------------------|
|-------------------------|-------------------------|
|-------------------------|-9--9--9--9--9--9--9--9--|
|-7--7--7--7--7--7--7--4--|-9--9--9--9--9--9--9--9--|
|-7--7--7--7--7--7--7--4--|-7--7--7--7--7--7--7--7--|
|-5--5--5--5--5--5--5-2--|-------------------------|

|-------------------------|-------------------------|
|-------------------------|-------------------------|
|-------------------------|-7--7--7--7--7--7--7--7--|
|-4--4--4--4--4--4--4--4--|-7--7--7--7--7--7--7--7--|
|-4--4--4--4--4--4--4--4--|-5--5--5--5--5--5--5--5--|
|-2--2--2--2--2--2--2--2--|-------------------------|

|-------------------------|-------------------------|
|-------------------------|-------------------------|
|-------------------------|-9--9--9--9--9--9--9--9--|
|-7--7--7--7--7--7--7--4--|-9--9--9--9--9--9--9--9--|
|-7--7--7--7--7--7--7--4--|-7--7--7--7--7--7--7--7--|
|-5--5--5--5--5--5--5-2--|-------------------------|

|-------------------------|-------------------------|
|-------------------------|-------------------------|
|-------------------------|-7--7--7--7--7--7--7--7--|
|-4--4--4--4--4--4--4--4--|-7--7--7--7--7--7--7--7--|
|-4--4--4--4--4--4--4--4--|-5--5--5--5--5--5--5--5--|
|-2--2--2--2--2--2--2--2--|-------------------------|

|-------------------------|-------------------------|
|-------------------------|-------------------------|
|-------------------------|-9--9--9--9--9--9--9--9--|
|-7--7--7--7--7--7--7--4--|-9--9--9--9--9--9--9--9--|
|-7--7--7--7--7--7--7--4--|-7--7--7--7--7--7--7--7--|
|-5--5--5--5--5--5--5-2--|-------------------------|

|-------------------------|-------------------------|
|-------------------------|-------------------------|
|-------------------------|-7--7--7--7--7--7--7--7--|
|-4--4--4--4--4--4--4--4--|-7--7--7--7--7--7--7--7--|
|-4--4--4--4--4--4--4--4--|-5--5--5--5--5--5--5--5--|
|-2--2--2--2--2--2--2--2--|-------------------------|

|-------------------------|-------------------------|
|-------------------------|-------------------------|
|-------------------------|-9--9--9--9--9--9--9--9--|
|-7--7--7--7--7--7--7--4--|-9--9--9--9--9--9--9--9--|
|-7--7--7--7--7--7--7--4--|-7--7--7--7--7--7--7--7--|
|-5--5--5--5--5--5--5-2--|-------------------------|

|-------------------------|-------------------------|
|-------------------------|-------------------------|
|-------------------------|-7--7--7--7--7--7--7--7--|
|-4--4--4--4--4--4--4--4--|-7--7--7--7--7--7--7--7--|
|-4--4--4--4--4--4--4--4--|-5--5--5--5--5--5--5--5--|
|-2--2--2--2--2--2--2--2--|-------------------------|

____________________________________________________________________________


|-------------------------|-------------------------| 
|----------10-10-10-12-12-|-12-12-12-12-12-12-12-12-|
|-9--9--9-----------------|-------------------------|
|-------------------------|-------------------------|
|-------------------------|-------------------------|
|-------------------------|-------------------------|

|-------------------------|-------------------------|
|----------10-10-10-12-12-|-12-10-10-10-10-10-10-10-|
|-9--9--9-----------------|-------------------------|
|-------------------------|-------------------------|
|-------------------------|-------------------------|
|-------------------------|-------------------------|

|-------------------------|-------------------------| 
|----------10-10-10-12-12-|-12-12-12-12-12-12-12-12-|
|-9--9--9-----------------|-------------------------|
|-------------------------|-------------------------|
|-------------------------|-------------------------|
|-------------------------|-------------------------|

|-------------------------|-------------------------|
|----------10-10-10-12-12-|-12-10-10-10-10-10-10-10-|
|-9--9--9-----------------|-------------------------|
|-------------------------|-------------------------|
|-------------------------|-------------------------|
|-------------------------|-------------------------|

____________________________________________________________________________


Palmmute the whole verse
|-------------------------|-------------------------|
|-------------------------|-------------------------|
|-------------------------|-------------------------|
|-------------------------|-------------------------|
|-0--0--0--0--0--0--0--0--|-2--2--2--2--2--2-2--2--|
|-------------------------|-------------------------|

|-------------------------|-------------------------|
|-------------------------|-------------------------|
|-------------------------|-------------------------|
|-------------------------|-------------------------|
|-4--4--4--4--4--4--4--4--|-5-5--5--5--5--5--5--5--|
|-------------------------|-------------------------|

|-------------------------|-------------------------|
|-------------------------|-------------------------|
|-------------------------|-------------------------|
|-------------------------|-------------------------|
|-0--0--0--0--0--0--0--0--|-2--2--2--2--2--2-2--2--|
|-------------------------|-------------------------|

|-------------------------|-------------------------|
|-------------------------|-------------------------|
|-------------------------|-------------------------|
|-------------------------|-------------------------|
|-4--4--4--4--4--4--4--4--|-5-5--5--5--5--5--5--5--|
|-------------------------|-------------------------|

|-------------------------|-------------------------|
|-------------------------|-------------------------|
|-------------------------|-------------------------|
|-------------------------|-------------------------|
|-0--0--0--0--0--0--0--0--|-2--2--2--2--2--2-2--2--|
|-------------------------|-------------------------|
[ Tab from: http://www.guitartabs.cc/tabs/b/blink_182/story_of_a_lonely_guy_tab_ver_16.html ]
|-------------------------|-------------------------|
|-------------------------|-------------------------|
|-------------------------|-------------------------|
|-------------------------|-------------------------|
|-4--4--4--4--4--4--4--4--|-5-5--5--5--5--5--5--5--|
|-------------------------|-------------------------|

|-------------------------|-------------------------|
|-------------------------|-------------------------|
|-------------------------|-------------------------|
|-------------------------|-------------------------|
|-0--0--0--0--0--0--0--0--|-2--2--2--2--2--2-2--2--|
|-------------------------|-------------------------|

|-------------------------|-------------------------|
|-------------------------|-------------------------|
|-------------------------|-------------------------|
|-------------------------|-------------------------|
|-4--4--4--4--4--4--4--4--|-5-5--5--5--5--5--5--5--|
|-------------------------|-------------------------|

____________________________________________________________________________


|-------------------------|-------------------------|
|-------------------------|-------------------------|
|-------2-----------2-----|-------2-----------2-----|
|-------------------------|-0--0-----0--0--0-----0--|
|-4--4-----4--4--4-----4--|-------------------------|
|-------------------------|-------------------------|

|-------------------------|-------------------------|
|-------------------------|-------------------------|
|-------2-----------2-----|-------2-----------2-----|
|-------------------------|-2--2-----2--2--2-----2--|
|-0--0-----0--0--0-----0--|-------------------------|
|-------------------------|-------------------------|

|-------------------------|-------------------------|
|-------------------------|-------------------------|
|-------2-----------2-----|-------2-----------2-----|
|-------------------------|-0--0-----0--0--0-----0--|
|-4--4-----4--4--4-----4--|-------------------------|
|-------------------------|-------------------------|

|-------------------------|-------------------------|
|-------------------------|-------------------------|
|-------2-----------2-----|-------2-----------2-----|
|-------------------------|-2--2-----2--2--2-----2--|
|-0--0-----0--0--0-----0--|-------------------------|
|-------------------------|-------------------------|

____________________________________________________________________________

PICKSLIDE
|-------------------------|-------------------------|
|-------------------------|-------------------------|
|-------------------------|-9--9--9--9--9--9--9--9--|
|-7--7--7--7--7--7--7--4--|-9--9--9--9--9--9--9--9--|
|-7--7--7--7--7--7--7--4--|-7--7--7--7--7--7--7--7--|
|-5--5--5--5--5--5--5-2--|-------------------------|

|-------------------------|-------------------------|
|-------------------------|-------------------------|
|-------------------------|-7--7--7--7--7--7--7--7--|
|-4--4--4--4--4--4--4--4--|-7--7--7--7--7--7--7--7--|
|-4--4--4--4--4--4--4--4--|-5--5--5--5--5--5--5--5--|
|-2--2--2--2--2--2--2--2--|-------------------------|

|-------------------------|-------------------------|
|-------------------------|-------------------------|
|-------------------------|-9--9--9--9--9--9--9--9--|
|-7--7--7--7--7--7--7--4--|-9--9--9--9--9--9--9--9--|
|-7--7--7--7--7--7--7--4--|-7--7--7--7--7--7--7--7--|
|-5--5--5--5--5--5--5-2--|-------------------------|

|-------------------------|-------------------------|
|-------------------------|-------------------------|
|-------------------------|-7--7--7--7--7--7--7--7--|
|-4--4--4--4--4--4--4--4--|-7--7--7--7--7--7--7--7--|
|-4--4--4--4--4--4--4--4--|-5--5--5--5--5--5--5--5--|
|-2--2--2--2--2--2--2--2--|-------------------------|

|-------------------------|-------------------------|
|-------------------------|-------------------------|
|-------------------------|-9--9--9--9--9--9--9--9--|
|-7--7--7--7--7--7--7--4--|-9--9--9--9--9--9--9--9--|
|-7--7--7--7--7--7--7--4--|-7--7--7--7--7--7--7--7--|
|-5--5--5--5--5--5--5-2--|-------------------------|

|-------------------------|-------------------------|
|-------------------------|-------------------------|
|-------------------------|-7--7--7--7--7--7--7--7--|
|-4--4--4--4--4--4--4--4--|-7--7--7--7--7--7--7--7--|
|-4--4--4--4--4--4--4--4--|-5--5--5--5--5--5--5--5--|
|-2--2--2--2--2--2--2--2--|-------------------------|

|-------------------------|-------------------------|
|-------------------------|-------------------------|
|-------------------------|-9--9--9--9--9--9--9--9--|
|-7--7--7--7--7--7--7--4--|-9--9--9--9--9--9--9--9--|
|-7--7--7--7--7--7--7--4--|-7--7--7--7--7--7--7--7--|
|-5--5--5--5--5--5--5-2--|-------------------------|

|-------------------------|-------------------------|
|-------------------------|-------------------------|
|-------------------------|-7--7--7--7--7--7--7--7--|
|-4--4--4--4--4--4--4--4--|-7--7--7--7--7--7--7--7--|
|-4--4--4--4--4--4--4--4--|-5--5--5--5--5--5--5--5--|
|-2--2--2--2--2--2--2--2--|-------------------------|

____________________________________________________________________________


|-------------------------|-------------------------|
|-------------------------|-------------------------|
|-------2-----------2-----|-------2-----------2-----|
|-------------------------|-0--0-----0--0--0-----0--|
|-4--4-----4--4--4-----4--|-------------------------|
|-------------------------|-------------------------|

|-------------------------|-------------------------|
|-------------------------|-------------------------|
|-9--9--9--9--9--9--9--9--|-9--9--9--9--9--9--9--9--|
|-9--9--9--9--9--9--9--9--|-9--9--9--9--9--9--9--9--|
|-7--7--7--7--7--7--7--7--|-7--7--7--7--7--7--7--7--|
|-------------------------|-------------------------|

|-------------------------|-------------------------|
|-------------------------|-------------------------|
|-------2-----------2-----|-------2-----------2-----|
|-------------------------|-0--0-----0--0--0-----0--|
|-4--4-----4--4--4-----4--|-------------------------|
|-------------------------|-------------------------|

|-------------------------|-------------------------|
|-------------------------|-------------------------|
|-9--9--9--9--9--9--9--9--|-9--9--9--9--9--9--9--9--|
|-9--9--9--9--9--9--9--9--|-9--9--9--9--9--9--9--9--|
|-7--7--7--7--7--7--7--7--|-7--7--7--7--7--7--7--7--|
|-------------------------|-------------------------|

|-------------------------|-------------------------|
|-------------------------|-------------------------|
|-------2-----------2-----|-------2-----------2-----|
|-------------------------|-0--0-----0--0--0-----0--|
|-4--4-----4--4--4-----4--|-------------------------|
|-------------------------|-------------------------|

|-------------------------|-------------------------|
|-------2-----------2-----|-------2-----------2-----|
|-------------------------|-------------------------|
|-2--2-----2--2--2-----2--|-2--2-----2--2--2-----2--|
|-------------------------|-------------------------|
|-------------------------|-------------------------|

|-------------------------|-------------------------|
|-------------------------|-------------------------|
|-------2-----------2-----|-------2-----------2-----|
|-------------------------|-0--0-----0--0--0-----0--|
|-4--4-----4--4--4-----4--|-------------------------|
|-------------------------|-------------------------|

____________________________________________________________________________


|-------------------------|-------------------------|
|-------------------------|-------------------------|
|-------------------------|-9--9--9--9--9--9--9--9--|
|-7--7--7--7--7--7--7--4--|-9--9--9--9--9--9--9--9--|
|-7--7--7--7--7--7--7--4--|-7--7--7--7--7--7--7--7--|
|-5--5--5--5--5--5--5-2--|-------------------------|

|-------------------------|-------------------------|
|-------------------------|-------------------------|
|-------------------------|-7--7--7--7--7--7--7--7--|
|-4--4--4--4--4--4--4--4--|-7--7--7--7--7--7--7--7--|
|-4--4--4--4--4--4--4--4--|-5--5--5--5--5--5--5--5--|
|-2--2--2--2--2--2--2--2--|-------------------------|

|-------------------------|-------------------------|
|-------------------------|-------------------------|
|-------------------------|-9--9--9--9--9--9--9--9--|
|-7--7--7--7--7--7--7--4--|-9--9--9--9--9--9--9--9--|
|-7--7--7--7--7--7--7--4--|-7--7--7--7--7--7--7--7--|
|-5--5--5--5--5--5--5-2--|-------------------------|

|-------------------------|-------------------------|
|-------------------------|-------------------------|
|-------------------------|-7--7--7--7--7--7--7--7--|
|-4--4--4--4--4--4--4--4--|-7--7--7--7--7--7--7--7--|
|-4--4--4--4--4--4--4--4--|-5--5--5--5--5--5--5--5--|
|-2--2--2--2--2--2--2--2--|-------------------------|

|-------------------------|-------------------------|
|-------------------------|-------------------------|
|-------------------------|-9--9--9--9--9--9--9--9--|
|-7--7--7--7--7--7--7--4--|-9--9--9--9--9--9--9--9--|
|-7--7--7--7--7--7--7--4--|-7--7--7--7--7--7--7--7--|
|-5--5--5--5--5--5--5-2--|-------------------------|




|-------------------------|-------------------------|
|-------------------------|-------------------------|
|-------------------------|-7--7--7--7--7--7--7--7--|
|-4--4--4--4--4--4--4--4--|-7--7--7--7--7--7--7--7--|
|-4--4--4--4--4--4--4--4--|-5--5--5--5--5--5--5--5--|
|-2--2--2--2--2--2--2--2--|-------------------------|

|-------------------------|-------------------------|
|-------------------------|-------------------------|
|-------------------------|-9--9--9--9--9--9--9--9--|
|-7--7--7--7--7--7--7--4--|-9--9--9--9--9--9--9--9--|
|-7--7--7--7--7--7--7--4--|-7--7--7--7--7--7--7--7--|
|-5--5--5--5--5--5--5-2--|-------------------------|

|-------------------------|-------------------------|
|-------------------------|-------------------------|
|-------------------------|-7--7--7--7--7--7--7--7--|
|-4--4--4--4--4--4--4--4--|-7--7--7--7--7--7--7--7--|
|-4--4--4--4--4--4--4--4--|-5--5--5--5--5--5--5--5--|
|-2--2--2--2--2--2--2--2--|-------------------------|

|-------------------------|-------------------------|
|-------------------------|-------------------------|
|-------------------------|-9--9--9--9--9--9--9--9--|
|-7--7--7--7--7--7--7--4--|-9--9--9--9--9--9--9--9--|
|-7--7--7--7--7--7--7--4--|-7--7--7--7--7--7--7--7--|
|-5--5--5--5--5--5--5-2--|-------------------------|

|-------------------------|-------------------------|
|-------------------------|-------------------------|
|-------------------------|-7--7--7--7--7--7--7--7--|
|-4--4--4--4--4--4--4--4--|-7--7--7--7--7--7--7--7--|
|-4--4--4--4--4--4--4--4--|-5--5--5--5--5--5--5--5--|
|-2--2--2--2--2--2--2--2--|-------------------------|

|-------------------------|-------------------------|
|-------------------------|-------------------------|
|----------------7-----7--|-7-----7--------7-----7--|
|-7--7--7--------7-----7--|-7-----7--------7-----7--|
|-5--5--5--------5-----5--|-5-----5--------5-----5--|
|-------------------------|-------------------------|

|-------------------------|-------------------------|
|-------------------------|-------------------------|
|-2-----------------------|-------------------------|
|-2-----------------------|-------------------------|
|-0-----------------------|-------------------------|
|-------------------------|-------------------------|

thats it, it's a pretty easy song.
for corrections you can mail me: below_the_salt@hotmail.com
i'm pretty sure its good but hey, i'm human ;)
Comments