Blink 182 - Story Of A Lonely Guy Chords & Tabs

 

Story Of A Lonely Guy Chords & Tabs

Blink 182 Chords & Tabs

Version: 14 Type: Tab 0 ratings
1 star 2 stars 3 stars 4 stars 5 stars
comments

Story Of A Lonely Guy Tab

------------------------------------------------------------
	Story Of A Lonely Guy - Blink 182
------------------------------------------------------------

By: Matt Shaw
E-mail: smasher169@hotmail.com

Intro: I'm not sure how many of these u will need to play, but 
these are the right notes. Unless u prefer the alternative intro (tabbed at end)

e|--0-0-0-5-5-5-7---0-0-0-5-5-5-7-7-7-5-5-5-----------------
B|----------------------------------------------------------
G|---------------------------------(Play this 2 times)------
D|----------------------------------------------------------
A|----------------------------------------------------------
E|----------------------------------------------------------

Verse: palm muted denoted by x

e|----------------------------------------------------------
B|----------------------------------------------------------
G|-2x-4x-6x-7x----------------------------------------------
D|-2x-4x-6x-7x----(Strum each note 8 times in conjunction---
A|-0x-2x-4x-5x---------------------with the verse)----------
E|----------------------------------------------------------
Play this 4 times.

Thing between verse and chorus: (no distortion)
e|----------------------------------------------------------
B|----------------------------------------------------------
G|----------------------------------------------------------
D|-----7-------7-------7-------7-------7-------7-------7----
A|-4-4---4-4-4---4-5-5---5-5-5---5-0-0---0-0-0---0-7-7---7-7
E|----------------------------------------------------------

e|----------------------------------------------------------
B|----------------------------------------------------------
G|----------------------------------------------------------
D|---7----(play this twice, then slide plec up guitar)------
A|-7--------------------------------------------------------
E|----------------------------------------------------------

Chorus: distortion back on, this is not how many strums you need, these are just the 
right notes to play, figure it out yourself by listening to the song, i can't be assed
e|----------------------------------------------------------
B|----------------------------------------------------------
G|---9---7--------------------------------------------------
D|-7-9-4-7--------(play 4 times)----------------------------
A|-7-7-4-5--------------------------------------------------
E|-5---2----------------------------------------------------

Back to Intro:
e|--0-0-0-5-5-5-7---0-0-0-5-5-5-7-7-7-5-5-5-----------------
B|----------------------------------------------------------
G|---------------------------------(Play this 2 times)------
D|----------------------------------------------------------
A|----------------------------------------------------------
E|----------------------------------------------------------

Verse:
e|----------------------------------------------------------
B|----------------------------------------------------------
G|-2x-4x-6x-7x----------------------------------------------
D|-2x-4x-6x-7x----(Strum each note 8 times in conjunction---
A|-0x-2x-4x-5x---------------------with the verse)----------
E|----------------------------------------------------------
Play this 4 times.

Back to thing between verse and chorus: (no distortion)
e|----------------------------------------------------------
B|----------------------------------------------------------
G|----------------------------------------------------------
D|-----7-------7-------7-------7-------7-------7-------7----
A|-4-4---4-4-4---4-5-5---5-5-5---5-0-0---0-0-0---0-7-7---7-7
E|----------------------------------------------------------
[ Tab from: http://www.guitartabs.cc/tabs/b/blink_182/story_of_a_lonely_guy_tab_ver_14.html ]
e|----------------------------------------------------------
B|----------------------------------------------------------
G|----------------------------------------------------------
D|---7----(play this twice, then slide plec up guitar)------
A|-7--------------------------------------------------------
E|----------------------------------------------------------

Chorus: distortion back on, this is not how many strums you need, these are just the 
right notes to play, figure it out yourself by listening to the song, i can't be assed
e|----------------------------------------------------------
B|----------------------------------------------------------
G|---9---7--------------------------------------------------
D|-7-9-4-7--------(play 4 times)----------------------------
A|-7-7-4-5--------------------------------------------------
E|-5---2----------------------------------------------------

Kool bit: when 9 comes, play a bunch of times, figure out 
               9                      how many yourselves
               7
e|----------------------------------------------------------
B|----------------------------------------------------------
G|--------------------------------9-------------------------
D|-----7-------7-------7-------7--9------7-------7-------7--
A|-4-4---4-4-4---4-5-5---5-5-5----7--4-4---4-4-4---4-5-5----
E|----------------------------------------------------------

e|----------------------------------------------------------
B|----------------------------------------------------------
G|----------9-----------------------------------------------
D|-------7--9------7-------7-------7-------7-------7-------7
A|-5-5-5----7--4-4---4-4-4---4-5-5---5-5-5---5-7-7---7-7-7--
E|----------------------------------------------------------

e|----------------------------------------------------------
B|----------------------------------------------------------
G|----------------------------------------------------------
D|-------7-------7-------7-------7-------7-------7----------
A|-7-7-7---7-7-7---7-4-4---4-4-4---4-5-5---5-5-5------------
E|----------------------------------------------------------

Then to Chorus:
e|----------------------------------------------------------
B|----------------------------------------------------------
G|---9---7--------------------------------------------------
D|-7-9-4-7--------(play 6 times, yes, 6 times not 4)--------
A|-7-7-4-5--------------------------------------------------
E|-5---2----------------------------------------------------
on last time hold onto the last 7 for abit longer finishing 
                                7                 on...
                                5

e|----------------------------------------------------------
B|----------------------------------------------------------
G|----------------------------------------------------------
D|-7--------------------------------------------------------
A|-7--------------------------------------------------------
E|-5----(let it ring)---------------------------------------


************************************************************
Alternative intro:
e|----------------------------------------------------------
B|--------10-10-10-12-12-12-------10-10-10-12-12-12-10------
G|--9-9-9-------------------9-9-9---------------------------
D|----------------------------------------------------------
A|-------------------------------(play twice)---------------
E|----------------------------------------------------------

Choose which ever intro suits you, and substitute it into all the times the intro is 
played, i like the top intro best.

Comments anyone? I'm pretty sure this is right, i aint done how many strums u do, but 
these are the right notes to play
Comments