Blink 182 - Story Of A Lonely Guy Chords & Tabs

 

Story Of A Lonely Guy Chords & Tabs

Blink 182 Chords & Tabs

Version: 13 Type: Tab 0 ratings
1 star 2 stars 3 stars 4 stars 5 stars
comments

Story Of A Lonely Guy Tab

              Story Of A Lonely Guy-Blink 182

Intro(x2):

E|------555-7777777777-----555-777-555555------------------|
B|--555----------------555---------------------------------|
G|---------------------------------------------------------|
D|---------------------------------------------------------|
A|---------------------------------------------------------|
E|---------------------------------------------------------|

This is played with the intro (x2):

E|---------------------------------------------------------|
B|---------------------------------------------------------|
G|---------------------------------------------------------|
D|---------------------------------------------------------|
A|----7-7-7----7-7-7----4-4-4--5-0---4---------------------|
E|--5--------7--------0------------7-----------------------|

Verse (All Palm Mute) (x4):

E|---------------------------------------------------------|
B|---------------------------------------------------------|
G|---------------------------------------------------------|
D|--7-7-7-7-7-7-7-7--9-9-9-9-9-9-9-9-----------------------|
A|--7-7-7-7-7-7-7-7--9-9-9-9-9-9-9-9-----------------------|
E|--5-5-5-5-5-5-5-5--7-7-7-7-7-7-7-7-----------------------|

E|---------------------------------------------------------|
B|---------------------------------------------------------|
G|---------------------------------------------------------|
D|--11-11-11-11-11-11-11--12-12-12-12-12-12-12-12----------|
A|--11-11-11-11-11-11-11--12-12-12-12-12-12-12-12----------|
E|--9--9--9--9--9--9--9---10-10-10-10-10-10-10-10----------|

Da Da....Da Da.......

E|---------------------------------------------------------|
B|---------------------------------------------------------|
G|---------------------------------------------------------|
D|----77---77---77---77---77---77---99---99----------------|
A|--44---44---55---55---00---00---77---77------------------|
E|---------------------------------------------------------|
       (x2)
[ Tab from: http://www.guitartabs.cc/tabs/b/blink_182/story_of_a_lonely_guy_tab_ver_13.html ]
Chorus (x4)

E|---------------------------------------------------------|
B|---------------------------------------------------------|
G|-------------------9-9-9-9-9-9-9-9-----------------------|
D|--7-7-7-7-7-7-7-7--9-9-9-9-9-9-9-9-----------------------|
A|--7-7-7-7-7-7-7-7--7-7-7-7-7-7-7-7-----------------------|
E|--5-5-5-5-5-5-5-5----------------------------------------|

E|---------------------------------------------------------|
B|---------------------------------------------------------|
G|---------------------------------------------------------|
D|--11-11-11-11-11-11-11-11--12-12-12-12-12-12-12-12-------|
A|--11-11-11-11-11-11-11-11--12-12-12-12-12-12-12-12-------|
E|--9--9--9--9--9--9--9--9---10-10-10-10-10-10-10-10-------|

Interlude:

E|---------------------------------------------------------|
B|---------------------------------------------------------|
G|-----------------------9-9-9-9-9-9-9-9-9-9-9-9-9-9-9-9---|
D|----77---77---77---77--9-9-9-9-9-9-9-9-9-9-9-9-9-9-9-9---|
A|--44---44---55---55----7-7-7-7-7-7-7-7-7-7-7-7-7-7-7-7---|
E|---------------------------------------------------------|
          (x2)

E|---------------------------------------------------------|
B|---------------------------------------------------------|
G|---------------------------------------------------------|
D|----77---77---77---77---77---77---77---77----------------|
A|--44---44---55---55---77---77---77---77------------------|
E|---------------------------------------------------------|

E|---------------------------------------------------------|
B|---------------------------------------------------------|
G|---------------------------------------------------------|
D|----77---77---77---77------------------------------------|
A|--44---44---55---55--------------------------------------|
E|---------------------------------------------------------|

Order:
Intro
Verse
Da Da thingy
Chorus
Intro
Verse
Da Da thingy
Chorus
Interlude
Chorus (The timing at the end is different)
Comments