Blink 182 - Story Of A Lonely Guy Chords & Tabs

 

Story Of A Lonely Guy Chords & Tabs

Blink 182 Chords & Tabs

Version: 12 Type: Tab 0 ratings
1 star 2 stars 3 stars 4 stars 5 stars
comments

Story Of A Lonely Guy Tab

   
Band/Artist: Blink182			Tabbed by: ToRK				
Song: Story of a lonely guy
E-mail: eved05@stdavids.co.za
Album: TOYPAJ

This song RULES!!!!!!!

CHORD CHART:
	E	F#	B	C#	A	D	Eii
e --------------------------------------------
B --------------------------------------------
G --------------4-----6----2-----7-----9------
D ---2-----4----4-----4----2-----7-----9------
A ---2-----4----2-----4----0-----5-----7------
E ---0-----2----------------------------------

~ = let ring
x = palm mute

Riff 1(Clean): X2

e ----777-9999999999----777-999-7777777-------
B -777---------------777----------------------
G --------------------------------------------
D --------------------------------------------
A --------------------------------------------
E --------------------------------------------

Verse: (palm muted)
A
 Push it out
B           C#
 Fake a smile
            D             A
 Avert disaster just in time
              B
 I need a drink
		    C#   
 ĎCause in a while worthless answers from

 friends of mine.
              B                 C#
 Itís dumb to ask, cool to ignore 
             D                     A
 Girls posses me, but theyíre never mine
            B
 I made my entrance 
           C#
 Avoided hazards
             D                A~
 Checked my engine, I fell behind

Bridge (clean): Dada, Dada, Dada, Dada Da.....

e -------------------------------------------------------------
B -------------------------------------------------------------
G -----2-------2-------2-------2-------2-------2-------2-------
D -----------------0-0---0-0-0---0-----------------2-2---2-2-2-
A -4-4---4-4-4---4-----------------0-0---0-0-0---0-------------
E ------------------------------------------------------------	

>>Pick Scratch
[ Tab from: http://www.guitartabs.cc/tabs/b/blink_182/story_of_a_lonely_guy_tab_ver_12.html ]
Chorus:
A             E                 F#           D Eii D Eii
 She makes me feel like itís raining outside
A             E                   F#            D Eii D Eii
 And when the storms gone Iím all torn up inside 
A              E      F#               D
 Iím always nervous on days like this like the prom
A              E                 F#           D
 I get too scared to move Ďcause Iím fuckin a boy


--Riff 1--X2

Verse2: Keep same Riff going as Verse1.

--Bridge--

--Pick Scratch--

--Chorus--

Riff2: X2
e ---------------------------------------------------------
B ---------------------------------------------------------
G -----2-------------2---------2----999-999-999-999-999-9--
D ---------------0-0---0---0-0---0--999-999-999-999-999-9--
A -4-4---4-4---4--------------------777-777-777-777-777-7--
E ---------------------------------------------------------
  [________________________________]
			Clean

Riff3 (clean):

e ---------------------------------------------------------
B ---------------------------------------------------------
G -----2---------2-------2---------2---------2---2------2--
D -------------------0-0---0---0-0---0---2-2---2---2-2---2-
A -4-4---4---4-4---4---------------------------------------
E ---------------------------------------------------------

e ---------------------------------------------------------
B ---------------------------------------------------------
G -----2---------2--------2---------2-------2---------2----
D -2-2---2---2-2---2--------------------0-0---0---0-0---0--
A --------------------4-4---4---4-4---4--------------------
E ---------------------------------------------------------

--Bridge--X2

A        Eii       C#      D
 Dada, Dada, Dada, Dada Da
A        Eii       C#      D
 Dada, Dada, Dada, Dada Da

--Chorus--

--End on A--

Thatís it Dudes! 
Send any comments to eved05@stdavids.co.za 

Later 

ToRK






Comments