Blink 182 - Story Of A Lonely Guy Chords & Tabs

 

Story Of A Lonely Guy Chords & Tabs

Blink 182 Chords & Tabs

Version: 3 Type: Bass Tab 0 ratings
1 star 2 stars 3 stars 4 stars 5 stars
comments

Story Of A Lonely Guy Bass Tab

   
Song: Story of a Lonely Guy
Album: Take Off Your Pants and Jacket
Band: Blink 182
Tabbed By: nickstick34 a.k.a. degenerate13

Intro
G-----------------------------------------------------------------|
D-------------------------------------------------------------5-7-|
A-0-0-0-0-0-0-0-0-7-7-7-7-7-7-7-7-4-4-4-4-4-4-4-4-5-5-5-5-5-5-----|
E-----------------------------------------------------------------|

Verse
G-----------------------------------------------------------------|
D-----------------------------------------------------------------|
A-0-0-0-0-0-0-0-0-2-2-2-2-2-2-2-2-4-4-4-4-4-4-4-4-5-5-5-5-5-5-5-5-|
E-----------------------------------------------------------------|

Pre-Chorus
G-----------------------------------------------------------------|
D-----------------------------------------------------------------|
A-4-4-4-4-4-4-4-4-5-5-5-5-5-5-5-5-0-0-0-0-0-0-0-0-7-7-7-7-7-7-7-7-|
E-----------------------------------------------------------------|
[ Tab from: http://www.guitartabs.cc/tabs/b/blink_182/story_of_a_lonely_guy_btab_ver_3.html ]
Chorus
G-----------------------------------------------------------------|
D-----------------------------------------------------------------|
A-0-0-0-0-0-0-0-0-7-7-7-7-7-7-7-7-4-4-4-4-4-4-4-4-5-5-5-5-5-5-5-5-|
E-----------------------------------------------------------------|

Interlude
G-----------------------------------------------------------------|
D-----------------------------------------------------------------|
A-4-4-4-4-4-4-4-4-5-5-5-5-5-5-5-5-7-7-7-7-7-7-7-7-7-7-7-7-7-7-7-7-|
E-----------------------------------------------------------------|

Interlude Pt.2
G-----------------------------------------------------------------|
D-----------------------------------------------------------------|
A-4-4-4-4-4-4-4-4-5-5-5-5-5-5-5-5-7-7-7-7-7-7-7-7-7-7-5-5-4-4-0-0-|
E-----------------------------------------------------------------|

G---------------------------------|
D---------------------------------|
A-4-4-4-4-4-4-4-4-5-5-5-5-5-5-5-5-|
E---------------------------------|

nickstick34@hotmail.com
Comments