Blink 182 - Stockholm Syndrome Chords & Tabs

 

Stockholm Syndrome Chords & Tabs

Blink 182 Chords & Tabs

Version: 8 Type: Tab 0 ratings
1 star 2 stars 3 stars 4 stars 5 stars
comments

Stockholm Syndrome Tab

Blink 182 - Stockholm Syndrome
by Satchmo

Ok, to me this tab sounds pretty perfect. Any questions, give me a bell
on Soupbowl2k1@hotmail.com

Standard Tuning
* = harmonic

Intro - Guitar 1                  
e|-----------------------------   
b|-----------------------------   
g|--4444---5555---4444---2222--   
d|--5555---5555---5555---2222--   
a|--2222---3333---2222---0000--   
e|--0000----------3333---------   

2nd time

e|---------
b|---------
g|--5555---
d|--5555---
a|--3333---
e|---------

Intro - Guitar 2
e|--------------------------------------
b|--------------------------------------
g|--------------4-------------8p0-0004--
d|-------------5------------------------
a|--------------------------------------
e|--------------------------------------

Intro - Guitar 2 cont'd  x4
e|-----------------------
b|--------------12*------
g|----12*-12*------------
d|-----------12*---------
a|-----------------------
e|-----------------------

Chorus
e|-----------------------------------------------
b|-----------------------------------------------
g|--4444444-55555555-44444444-22222222-55555555--
d|--5555555-55555555-55555555-22222222-55555555--
a|--2222222-33333333-22222222-00000000-33333333--
e|--0000000----------33333333--------------------

Chorus cont'd
e|-----------------------------------------------
b|-----------------------------------------------
g|--4444444-55555555-44444444-22222222-----------
d|--5555555-55555555-55555555-22222222-55555555--
a|--2222222-33333333-22222222-00000000-55555555--
e|--0000000----------33333333----------33333333--
[ Tab from: http://www.guitartabs.cc/tabs/b/blink_182/stockholm_syndrome_tab_ver_8.html ]
Pre-Verse            x2                        x2
e|-------------------   ---------------------
b|-------------------   ---------------------
g|-------------------   ---------------------
d|--5555/4/5555/4/5--   --5-7-9-55-4-55-4-5--
a|--5555/4/5555/4/5--   --5-7-9-55-4-55-4-5--
e|--3333/2/3333/2/3--   --3-5-7-33-2-33-2-3--

Bridge (I'm so lost)               x6
e|-----------------------------------------------
b|-----------------------------------------------
g|--4444444-55555555-44444444-22222222-----------
d|--5555555-55555555-55555555-22222222-55555555--
a|--2222222-33333333-22222222-00000000-55555555--
e|-------------------------------------33333333--
pm  ....... ........ ........ ........ ........

Verse - Guitar 2
e|--------------------------------------------------------------
b|---10-8~~--7-8--10-8~~--7-8-7-8--10-8~~-10-7-8-10-7-8-10-7-8--
g|--7-------7----7-------7---7----7-----------------------------
d|--------------------------------------------------------------
a|--------------------------------------------------------------
e|--------------------------------------------------------------

Bridge cont'd (You're cold with disappointment)
e|-----------------------------------------------
b|-----------------------------------------------
g|--4444444-55555555-44444444-22222222-----------
d|--5555555-55555555-55555555-22222222-55555555--
a|--2222222-33333333-22222222-00000000-55555555--
e|--0000000----------33333333----------33333333--

Bridge cont'd
e|-----------------------------------------------
b|-----------------------------------------------
g|--4444444-55555555-44444444-22222222-55555555--
d|--5555555-55555555-55555555-22222222-55555555--
a|--2222222-33333333-22222222-00000000-33333333--
e|--0000000----------33333333--------------------

Chorus

Then end on
e|-----
b|-----
g|--4--
d|--5--
a|--2--
e|--3--
Comments