Blink 182 - Stockholm Syndrome Chords & Tabs

 

Stockholm Syndrome Chords & Tabs

Blink 182 Chords & Tabs

Version: 6 Type: Tab 0 ratings
1 star 2 stars 3 stars 4 stars 5 stars
comments

Stockholm Syndrome Tab

This song is awesome 


INTRO
-----------------------------------33-7----33-7----33-7--------------
-------------------------------------3-------3-------3---------------
------5555-4444-2222-------------------5555------------2222-5555555--
-2222-5555-5555-2222-----------2222----5555----5555----2222-5555555--
-2222-3333-2222-0000-----------2222----3333----5555----0000-3333333--
-0000--------------------------0000------------3333------------------
                             This part is two guitars but i tabbed it as one

CHORUS
---------------------------------------------------------------------
---------------------------------------------------------------------
-----------------555555555555555-----------------2222222-------------
-222222222222222-555555555555555--55555555555555-222222244444444-----
-222222222222222-333333333333333--55555555555555-000000044444444-----
-000000000000000------------------33333333333333--------22222222-----

---------------------------------------------------------------------
---------------------------------------------------------------------
-----------------555555555555555-----------------222222255555555-----
-222222222222222-555555555555555--55555555555555-222222255555555-----
-222222222222222-333333333333333--55555555555555-000000033333333-----
-000000000000000------------------33333333333333---------------------

BRIDGE PART (listen closely to get the strum)

---------------------------------------------------------------------
---------------------------------------------------------------------
---------------------------------------------------------------------
-555554-555555555-555554-555555555-5-7-9-55-4-555554-555555555-------
-XXXXXX-XXXXXXXXX-XXXXXX-XXXXXXXXX-X-X-X-XX-X-XXXXXX-XXXXXXXXX-------
-333332-333333333-333332-333333333-3-5-7-33-2-333332-333333333-------
[ Tab from: http://www.guitartabs.cc/tabs/b/blink_182/stockholm_syndrome_tab_ver_6.html ]
Bass line (this part is the bass line but it sounds alrite on guitar)
---------------------------------------------------------------------
---------------------------------------------------------------------
---------------------------------------------------------------------
---------------------------------------------------------------------
---------------------------------------------------------------------
-777777777777877888888888888888877777777777777775555555533333333-----

Guitar in the background
---------------------------------------------------------------------
---------------------------------------------------------------------
--14-12--11-12--14-12--14-11-12---14-12-14-11-12-14-11-12-14-11-12---
12-----12-----12----------------12-----------------------------------
---------------------------------------------------------------------
---------------------------------------------------------------------

---------------------------------------------------------------------
---------------------------------------------------------------------
---------------------------------------------------------------------
-9-----10-----9-----7----5-------------------------------------------
-9-X16-10-X16-9-X16-7-X8-5-X8----------------------------------------
-7------8-----7-----5----3-------------------------------------------

CHORUS
---------------------------------------------------------------------
---------------------------------------------------------------------
-----------------555555555555555-----------------2222222-------------
-222222222222222-555555555555555--55555555555555-222222244444444-----
-222222222222222-333333333333333--55555555555555-000000044444444-----
-000000000000000------------------33333333333333--------22222222-----

---------------------------------------------------------------------
---------------------------------------------------------------------
-----------------555555555555555-----------------222222255555555-----
-222222222222222-555555555555555--55555555555555-222222255555555-----
-222222222222222-333333333333333--55555555555555-000000033333333-----
-000000000000000------------------33333333333333---------------------

END ON
---
---
---
-2-
-2-
-0-

This song is amazing and really easy to play
Any comments or questions email me at blinkpunk182_@hotmail.com
Comments