Blink 182 - Stockholm Syndrome Chords & Tabs

 

Stockholm Syndrome Chords & Tabs

Blink 182 Chords & Tabs

Version: 5 Type: Tab 0 ratings
1 star 2 stars 3 stars 4 stars 5 stars
comments

Stockholm Syndrome Tab

Stocklholm Syndrome, off new self titled album november 18...
i hated the original tab so i made one. enjoy.

INSIDE IN PARENTHESES I INCLUDED GUITAR 2

-----------------------------------------------------------------
-----------------------(0--4)------------------------------------
----------------5555---(5---)---4444------------2222(7---------4-)
2222------------5555------------5555------------2222(-5--5--5----)
2222------------3333------------2222------------0000-------------
0000-------------------------------------------------------------

----------------------------------------------------------------------------
-----(----------12)------(----------12)------(----------12)(8-8-8-8--8-8)---
-----(12--12------)-5555-(12--12------)-4444-(12--12------)-2222----5555----
2222-(--------12--)-5555-(--------12--)-5555-(--------12--)-2222----5555----
2222----------------3333----------------2222----------------0000----3333----
0000------------------------------------------------------------------------

-----------------------------------------------------------------
-----------------------------------------------------------------
-----------------5555555555555555----------------22222222--------
22222222222222222555555555555555555555555555555552222222255555555
22222222222222222333333333333333355555555555555550000000055555555
00000000000000000----------------3333333333333333--------33333333

-----------------------------------------------------------------
-----------------------------------------------------------------
-----------------5555555555555555----------------2222222255555555
22222222222222222555555555555555555555555555555552222222255555555
22222222222222222333333333333333355555555555555550000000033333333
00000000000000000----------------3333333333333333----------------

It may seem like more than 3rd fret E in this part, but thats
just bass
----------------------------------------------------------------
----------------------------------------------------------------
----------------------------------------------------------------
----------------------------------------------------------------
----------------------------------------------------------------
0---------------33333333333333330---------------3333333333333333

----------------------------------------------------------------
----------------------------------------------------------------
----------------------------------------------------------------
5--7--9--5--5-4-55555554555555555--7--9--5--5-4-5555555455555555
x--x--x--x--x-x-xxxxxxxxxxxxxxxxx--x--x--x--x-x-xxxxxxxxxxxxxxxx
3--5--7--3--3-2-33333332333333333--5--7--3--3-2-3333333233333333

----------------------------------------------------------------
----------------------------------------------------------------
----------------------------------------------------------------
5--7--9--5--5-4-55555554555555555--7--9--5--5-4-5555555455555555
x--x--x--x--x-x-xxxxxxxxxxxxxxxxx--x--x--x--x-x-xxxxxxxxxxxxxxxx
3--5--7--3--3-2-33333332333333333--5--7--3--3-2-3333333233333333
[ Tab from: http://www.guitartabs.cc/tabs/b/blink_182/stockholm_syndrome_tab_ver_5.html ]
---------------------------------------------------------------
---------------------------------------------------------------
---------------------------------------------------------------
---------------------------------------------------------------
22222222222223233333333333333333222222222222222200000000------- 
--------------------------------------------------------3333333
...............................................................

---------------------------------------------------------------
---------------------------------------------------------------
---------------------------------------------------------------
---------------------------------------------------------------
22222222222223233333333333333333222222222222222200000000------- 
--------------------------------------------------------3333333
...............................................................

---------------------------------------------------------------
---------------------------------------------------------------
---------------------------------------------------------------
---------------------------------------------------------------
22222222222223233333333333333333222222222222222200000000------- 
--------------------------------------------------------3333333
...............................................................

---------------------------------------------------------------
---------------------------------------------------------------
---------------------------------------------------------------
---------------------------------------------------------------
222222222222232333333333333333332222222200000000--------------- 
------------------------------------------------3--------------
................................................               

---------------------------------------------------------------
---------------------------------------------------------------
---------------------------------------------------------------
555555555555555555555555555555555555555555555555222222225555555
222222222222222233333333333333332222222222222222000000005555555 
0000000000000000----------------0000000000000000--------3333333

---------------------------------------------------------------
---------------------------------------------------------------
---------------------------------------------------------------
555555555555555555555555555555555555555555555555222222225555555
222222222222222233333333333333332222222222222222000000005555555 
0000000000000000----------------0000000000000000--------3333333

-----------------------------------------------------------------
-----------------------------------------------------------------
-----------------5555555555555555----------------22222222--------
22222222222222222555555555555555555555555555555552222222255555555
22222222222222222333333333333333355555555555555550000000055555555
00000000000000000----------------3333333333333333--------33333333

-----------------------------------------------------------------
-----------------------------------------------------------------
-----------------5555555555555555----------------22222222--------
22222222222222222555555555555555555555555555555552222222255555555
22222222222222222333333333333333355555555555555550000000055555555
00000000000000000----------------3333333333333333--------33333333

  (---------12-)   (---------12-)   (---------12-)   
  (12--12------)   (12--12------)   (12--12------)  (12--12---12)
  (--------12--)   (-------12---)   (-------12---)

Guitar 2 End on:
---
---
12-
---
---
---

Guitar 2 End on:
---
---
---
---
---
0--
Comments