Blink 182 - Stockholm Syndrome Chords & Tabs

 

Stockholm Syndrome Chords & Tabs

Blink 182 Chords & Tabs

Version: 2 Type: Tab 0 ratings
1 star 2 stars 3 stars 4 stars 5 stars
comments

Stockholm Syndrome Tab

Tabbed By Simon Richards - Email DELONGE_HOPPUS@HOTMAIL.COM
I'm not going to brag and say this is 100% correct because obviously I cannot give
that garentee. Anyway. Enjoy Fellow Blink Fans!

BLINK - 182 -
NEW ALBUM TABS

Stockholm Syndrome

Intro Guitar 1 (Distorted):
e|--------------------------------------------------------|
B|--------------------------------------------------------|
G|-----------------5-5-5-5----h4--4-4-4-4--------2-2-2-2--|
D|--5-5-5-5--------5-5-5-5--5>----5-5-5-5--------2-2-2-2--|
A|--2-2-2-2--------3-3-3-3--------2-2-2-2--------0-0-0-0--|
E|--0-0-0-0-----------------------------------------------|

e|----------3-3---7>>---------3-3---7>>---------3-3---7>>---------3-3---7>>------------------|
B|--------------3-----------------3-----------------3-----------------3----------------------|
G|--------------------5-5-5-5-----------4-4-4-4-----------2-2-2-2-----------5-5-5-5-5-5-5-5--|
D|--5-5-5-5-----------5-5-5-5-----------5-5-5-5-----------2-2-2-2-----------x-x-x-x-x-x-x-x--|
A|--2-2-2-2-----------3-3-3-3-----------2-2-2-2-----------0-0-0-0-----------3-3-3-3-3-3-3-3--|
E|--0-0-0-0----------------------------------------------------------------------------------|

Chorus (Distorted):
e|----------------------------------------------------------------------------------|
B|----------------------------------------------------------------------------------|
G|----------------------------5-5-5-5-5-5-5-5---4-4-4-4-4-4-4-4---2-2-2-2-----------|
D|----------2-2-2-2-2-2-2-2---5-5-5-5-5-5-5-5---5-5-5-5-5-5-5-5---2-2-2-2--5-5-5-5--|
A|----------2-2-2-2-2-2-2-2---3-3-3-3-3-3-3-3---2-2-2-2-2-2-2-2---0-0-0-0--5-5-5-5--|
E|----------0-0-0-0-0-0-0-0------------------------------------------------2-3-2-3--|
This is the first ...

e|----------------------------------------------------------------------------------|
B|----------------------------------------------------------------------------------|
G|----------------------------5-5-5-5-5-5-5-5---4-4-4-4-4-4-4-4---2-2-2-2--5-5-5-5--|
D|----------2-2-2-2-2-2-2-2---5-5-5-5-5-5-5-5---5-5-5-5-5-5-5-5---2-2-2-2--5-5-5-5--|
A|----------2-2-2-2-2-2-2-2---3-3-3-3-3-3-3-3---2-2-2-2-2-2-2-2---0-0-0-0--3-3-3-3--|
E|----------0-0-0-0-0-0-0-0---------------------------------------------------------|
Where do we go ...

Break
e|-------------------------------------------------------------------------------------------|
B|-------------------------------------------------------------------------------------------|
G|-------------------------------------------------------------------------------------------|
D|--5/7/9/5--5-5/4--5-5-5--54---5-5-5-5-5-5--5--5/7/9/5--5-5/4--5-5-5--54---5-5-5-5-5-5-5--|
A|------------------x-x-x--xx---x-x-x-x-x-x--5------------------x-x-x--xx---x-x-x-x-x-x-x--|
E|------------------3-3-3--32---3-3-3-3-3-3--2------------------3-3-3--32---3-3-3-3-3-3-3--|

e|-----------------------------------------------------------------------------|
B|-----------------------------------------------------------------------------|
G|-----------------------------------------------------------------------------|
D|--5/7/9-554--5-5-5--54--5-5-5-5-5-5---5/7/9-554--5-5-5--54--5-5-5-5-5-5--|
A|--x/x/x-xx-x--x-x-x--x-x--x-x-x-x-x-x---x/x/x-xx-x--x-x-x--x-x--x-x-x-x-x-x--|
E|--3/5/7-332--3-3-3--32--3-3-3-3-3-3---3/5/7-332--3-3-3--32--3-3-3-3-3-3--|


Chorus Part One
e|----------------------------------------------------------------------|
B|----------------------------------------------------------------------|
G|----------------------------------------------------------------------|
D|------------------5-5-5-5-5-5-5-5--5-5-5-5-5-5-5-5--2-2-2-2-----------|
A|-2-2-2-2-2-2-2-2--3-3-3-3-3-3-3-3--2-2-2-2-2-2-2-2--0-0-0-0--5-5-5-5--|
E|-0-0-0-0-0-0-0-0---------------------------------------------3-3-3-3--|
PM - - - - - - - -  - - - - - - - -  - - - - - - - -  - - - -  - - - - 
[ Tab from: http://www.guitartabs.cc/tabs/b/blink_182/stockholm_syndrome_tab_ver_2.html ]
Chorus Part Two (two guitars)
e|-----------------------------------------------------------------------|
B|-----------------------------------------------------------------------|
G|-----------------------------------------------------------------------|
D|-------------------5-5-5-5-5-5-5-5--5-5-5-5-5-5-5-5--2-2-2-2--5-5-5-5--|
A|--2-2-2-2-2-2-2-2--3-3-3-3-3-3-3-3--2-2-2-2-2-2-2-2--0-0-0-0--3-3-3-3--|
E|--0-0-0-0-0-0-0-0------------------------------------------------------|
PM  - - - - - - - -  - - - - - - - -  - - - - - - - -  - - - -  - - - -
 |                                                                       |
 |                                                                       |
e|-----------------------------------------------------------------------|
B|-----------------------------------------------------------------------|
G|----14-12------------11-12------------14-12-----------------------11-12|
D|--12---------------12---------------12--------------------------12-----|
A|-----------------------------------------------------------------------|
E|-----------------------------------------------------------------------|
I'm so lost ...

Chorus Part Three (two guitars)
e|------------------------------------------------------------------|
B|------------------------------------------------------------------|
G|------------------------------------------------------------------|
D|-------------------5-5-5-5-5-5-5-5--5-5-5-5-5--2-2-2-2------------|
A|--2-2-2-2-2-2-2-2--3-3-3-3-3-3-3-3--2-2-2-2-2--0-0-0-0--5--->-->--|
E|--0-0-0-0-0-0-0-0---------------------------------------3--->-->--|
 |                                                                  |
 |                                                                  |
e|------------------------------------------------------------------|
B|------------------------------------------------------------------|
G|----14-12-----------14-11-12---------14-11-12-----------14-11-12--|
D|--12--------------------------------------------------------------|
A|------------------------------------------------------------------|
E|------------------------------------------------------------------|

Chorus (Distorted):
e|--------------------------------------------------------------------------|
B|--------------------------------------------------------------------------|
G|--------------------5-5-5-5-5-5-5-5---4-4-4-4-4-4-4-4---2-2-2-2-----------|
D|--2-2-2-2-2-2-2-2---5-5-5-5-5-5-5-5---5-5-5-5-5-5-5-5---2-2-2-2--5-5-5-5--|
A|--2-2-2-2-2-2-2-2---3-3-3-3-3-3-3-3---2-2-2-2-2-2-2-2---0-0-0-0--5-5-5-5--|
E|--0-0-0-0-0-0-0-0------------------------------------------------3-3-3-3--|
You're cold with disapointment ...

e|--------------------------------------------------------------------------|
B|--------------------------------------------------------------------------|
G|--------------------5-5-5-5-5-5-5-5---4-4-4-4-4-4-4-4---2-2-2-2--5-5-5-5--|
D|--2-2-2-2-2-2-2-2---5-5-5-5-5-5-5-5---5-5-5-5-5-5-5-5---2-2-2-2--5-5-5-5--|
A|--2-2-2-2-2-2-2-2---3-3-3-3-3-3-3-3---2-2-2-2-2-2-2-2---0-0-0-0--3-3-3-3--|
E|--0-0-0-0-0-0-0-0---------------------------------------------------------|
I'm sick with ...

Chorus (Distorted):
e|----------------------------------------------------------------------------------|
B|----------------------------------------------------------------------------------|
G|----------------------------5-5-5-5-5-5-5-5---4-4-4-4-4-4-4-4---2-2-2-2-----------|
D|----------2-2-2-2-2-2-2-2---5-5-5-5-5-5-5-5---5-5-5-5-5-5-5-5---2-2-2-2--5-5-5-5--|
A|----------2-2-2-2-2-2-2-2---3-3-3-3-3-3-3-3---2-2-2-2-2-2-2-2---0-0-0-0--5-5-5-5--|
E|----------0-0-0-0-0-0-0-0------------------------------------------------2-3-2-3--|
This is the first ...

Next Part (two guitars)
e|----------------------------------------------------------------------------------|-------|
B|----------------------------------------------------------------------------------|-------|
G|----------------------------5-5-5-5-5-5-5-5---4-4-4-4-4-4-4-4---2-2-2-2--5-5-5-5--|-4->->-|
D|----------2-2-2-2-2-2-2-2---5-5-5-5-5-5-5-5---5-5-5-5-5-5-5-5---2-2-2-2--5-5-5-5--|-5->->-|
A|----------2-2-2-2-2-2-2-2---3-3-3-3-3-3-3-3---2-2-2-2-2-2-2-2---0-0-0-0--3-3-3-3--|-2->->-|
E|----------0-0-0-0-0-0-0-0---------------------------------------------------------|-------|
 |                                                                                  |
 |                                                                                  |
e|---------------3-3---7>>----------3-3---7>>----------3-3---7>>--------3-3--3>-----|
B|-------------------3------------------3------------------3------------------------|
G|----------------------------------------------------------------------------------|
D|----------------------------------------------------------------------------------|
A|----------------------------------------------------------------------------------|
E|----------------------------------------------------------------------------------|
Where do we go ...
Comments