Blink 182 - Stockholm Syndrome Chords & Tabs

 

Stockholm Syndrome Chords & Tabs

Blink 182 Chords & Tabs

Version: 11 Type: Tab 0 ratings
1 star 2 stars 3 stars 4 stars 5 stars
comments

Stockholm Syndrome Tab

   
Stockholm Syndrome
STANDERED F***ING TUNING, its about time
and dont give me crap 'cuz i cant spell standered
Just because im a nice person, i took the time to figure
out all that piano stuff at the beginning of the song
Guitar 1 is going to be the piano for future reference,
its sounds best if you pluck the strings and not strum
and there are like 2 or 3 other guitars as well. I'll label the
piano riffs by Letters because they repaet alot

Guitar 1
Riff A
E|--3----5----7-----3-----3---2------------------------|
B|--0--------------------------------------------------|
G|--0--------------------------------------------------|
D|-----------------------------------------------------|
A|-----------------------------------------------------| 
E|--0--------------------------------------------------|

Now pause for a bar
Guitar 1
Riff A continued
E|--------------7-------------------------------------|
B|--8---10-------------8------8------7------------------|
G|----------------------------------------------------|
D|----------------------------------------------------|
A|----------------------------------------------------| 
E|--8-------------------------------------------------|
End Riff A

Pause for a bar, Play it again then play this:
Guitar 1
Riff B
E|-3--5------7----3----3------2-----------------------|
B|-0--------------------------------------------------|
G|-0--------------------------------------------------|
D|----------------------------------------------------|
A|----------------------------------------------------| 
E|----------------------------------------------------|

Pause again for a bar
Guitar 1
Riff B Continued
E|--------------7--------------------------------------|
B|-8----10------------8------8------7------------------|
G|-7---------------------------------------------------|
D|-7---------------------------------------------------|
A|-9---------------------------------------------------| 
E|-----------------------------------------------------|
End Riff B
Pause, then play Riff A 4 times, now we go into the music part:

Guitar 2
Intro
E|----------------------------------------------------|
B|--------------------------0-------------------------|
G|-0-0-0-0------------------0-------------------------|
D|-2-2-2-2--------------------------------------------|
A|-2-2-2-2---------3-3-3-3----------------------------| 
E|-0-0-0-0---------3-3-3-3----------------------------|
           ^pause for a bar after this, then play rest

Guitar 2
Intro continued
Play this part and have guitar 3 playing the follwing riff
at the same time
E|----------------------------------------------------|
B|----------------------------------------------------|
G|----------------2-2-2-2-----------------------------|
D|--5-5-5-5-------2-2-2-2-----------------------------|
A|--2-2-2-2-------0-0-0-0-----------------------------| 
E|----------------------------------------------------|
           ^pause for a bar, then play rest 
Guitar 3
Harmonic intro
     H      H
E|----------------------------------------------------|
B|--12-----------------------0------------------------|
G|--12------7----0-----0------------------------------|
D|----------------------------------------------------|
A|----------------------------------------------------| 
E|----------------------------------------------------|
      ^ pause for like a bar and a half, then play rest

Guitar 2
Intro continued
Again, play the following guitar 3 part with it
E|----------------------------------------------------|
B|----------------------------------------------------|
G|--------------5-5-5-5-------------------------------|
D|--------------5-5-5-5-------------------------------|
A|--2-2-2-2-----3-3-3-3-------------------------------| 
E|--0-0-0-0-----3-3-3-3-------------------------------|
           ^pause for a bar, then play rest

Guitar 3
Harmonic Intro continued
   H     H      H     H             H         H    H   H
E|--------------------------------------------------------|
B|--------------------------------------------------------|
G|-12----12-----------12------------12-------12--------12-|
D|--------------12---------------------------------12-----|
A|--------------------------------------------------------| 
E|--------------------------------------------------------|

Guitar 2
Intro continued part 3
Guitar 3 plays the "Harmonic Intro Continued" part during this
E|----------------------------------------------------|
B|----------------------------------------------------|
G|----------------2-2-2-2----5-5-5-5-5-5-5------------|
D|--5-5-5-5-------2-2-2-2----5-5-5-5-5-5-5------------|
A|--2-2-2-2-------0-0-0-0----3-3-3-3-3-3-3------------| 
E|-----------------------------3-3-3-3-3-3------------|
           ^pause for a bar, then * play rest

Words come in on star
Guitar 2
Chours
E|----------------------------------------------------|
B|----------------------------------------------------|
G|-0-0-0-0-0-0-0-0-0----------------------------------|
D|-2-2-2-2-2-2-2-2-2----------------------------------|
A|-2-2-2-2-2-2-2-2-2----3-3-3-3-3-3-3-3-3-------------| 
E|-0-0-0-0-0-0-0-0-0----3-3-3-3-3-3-3-3-3-------------|
[ Tab from: http://www.guitartabs.cc/tabs/b/blink_182/stockholm_syndrome_tab_ver_11.html ]
Guitar 2
Chours continued
E|----------------------------------------------------|
B|----------------------------------------------------|
G|--------------------2-2-2-2-2-2-0-------------------|
D|--------------------2-2-2-2-2-2-0-------------------|
A|-5-5-5-5-5-5-5-5-5--0-0-0-0-0-0-0-5-5-5-5-5-5-------| 
E|-3-3-3-3-3-3-3-3-3----------------2-2-2-2-2-2-------|
                                   *
Repeat the chours, but at the star instead of playing the
"2,5" riff, play this in place of it te seccond time 'round

Guitar 2
E|---------------|
B|---------------|
G|5-5-5-5-5-5----|
D|5-5-5-5-5-5----|
A|3-3-3-3-3-3----| 
E|3-3-3-3-3-3----|

Now have Guitar 1 play the first part of Riff A, NOT THE CONTINUED
PART!!, Then have Guitar 2 play this:

Guitar 2
Interlude
E|----------------------------------------------------|
B|----------------------------------------------------|
G|----------------------------------------------------|
D|-5-5-5-5-5-4-5-5-5-5-5-5----------------------------|
A|-x-x-x-x-x-x-x-x-x-x-x-x-0--------------------------|
E|-3-3-3-3-3-2-3-3-3-3-3-3-0--------------------------|

Now repeat Riff A with Guitar 1, then play Guitar 2's part again
Then go on tho this part

Guitar 2
Interlude, kinda
E|----------------------------------------------------|
B|----------------------------------------------------|
G|----------------------------------------------------|
D|-5-----7----9----5-5-5-5-5-4-4-5-5-5-5-5-5----------|
A|-x-----x----x----x-x-x-x-x-x-x-x-x-x-x-x-x----------|
E|-3--0--5-0--7--0-3-3-3-3-3-2-2-3-3-3-3-3-3----------|
                  * repeat part after star

OK, now play this whole thing again, so play whole, then just
the part after star, then the whole thing, and then the star
part, i hope that makes sence
Guitar 2
Interlude (still)
E|----------------------------------------------------|
B|----------------------------------------------------|
G|----------------------------------------------------|
D|----------------------------------------------------|
A|----------------------------------------------------| 
E|--7777777777777-88-77-8888888888888-----------------|
Palm Mute this whole thing,

Guitar 2
Interlude (still part 2)
E|----------------------------------------------------|
B|----------------------------------------------------|
G|----------------------------------------------------|
D|----------------------------------------------------|
A|----------------------------------------------------| 
E|--7777777777777777777-55555555-33333333333----------|
Palm Mute This Also!!

Alright, play the Still and Still part 2 again, then just
play the first part again during the verse
Guitar 3
With Rotating speaker effect type thing
E|----------------------------------------------|
B|--------10------------------------------------|
G|------------12---------------------11----/12--|
D|--12---------------------------12-------------|
A|----------------------------------------------| 
E|----------------------------------------------|

Guitar 3
Verse Contiued, effect still on
E|----------------------------------------------|
B|--------10------------------------------------|
G|------------12---------------------11----/12--|
D|--12------------------------------------------|
A|----------------------------------------------| 
E|----------------------------------------------|

Guitar 3
Verse Part 3, still effect
E|----------------------------------------------|
B|--------10--------------------10--------------|
G|------------12---------------------11----/12--|
D|--12------------------------------------------|
A|----------------------------------------------| 
E|----------------------------------------------|

Guitar 3
Verse Part 4, Effect still on
E|----------------------------------------------|
B|--10--------------------------10--------------|
G|-------11-----12-------------------11----/12--|
D|----------------------------------------------|
A|----------------------------------------------| 
E|----------------------------------------------|

OK, now remeber when i said for guitar 2 to play that
riff 1 and 1/2 times, well this part is taking the place
of that last missing half

Guitar 2
Missing last half riff
E|---------------------------------|
B|---------------------------------|
G|---------------------------------|
D|---------------------------------|
A|---------------------------------| 
E|--7777777777-55555555-3----------|
Plam Mute all but the last and only "3"

Guitar 2
Pre-Chours
E|-----------------------------------------------|
B|-----------------------------------------------|
G|-----------------------------------------------|
D|--5-5-5-5-5-5-5-5-5-5-5-5-5-5-5-5-5-5-5--------|
A|--2-2-2-2-2-2-2-2-2-2-3-3-3-3-3-3-3-3-3--------| 
E|-----------------------------------------------|

Guitar 2
Pre-Chours continued
E|-----------------------------------------------|
B|-----------------------------------------------|
G|-----------------------------------------------|
D|--5-5-5-5-5-5-5-5-5-5-7-7-7-7-7-7-5-5-5-5-5----|
A|--2-2-2-2-2-2-2-2-2-2-x-x-x-x-x-x-x-x-x-x-x----| 
E|----------------------5-5-5-5-5-5-3-3-3-3-3----|

Repeat the pre-chours and the continued part
Now go back to the chours play it all, INCLUDING
THE STARED PART, and then end on this chord
Guitar 2
E|---|
B|---|
G|-0-|
D|-2-|
A|-2-| 
E|-0-|

That was one long ass song, You damn well better be happy.
i know its a bit hard to understand, but you'll get it soon
enough.
Comments