Blink 182 - Stockholm Syndrome Chords & Tabs

 

Stockholm Syndrome Chords & Tabs

Blink 182 Chords & Tabs

Version: 1 Type: Tab 1 rating
1 star 2 stars 3 stars 4 stars 5 stars
comments

Stockholm Syndrome Tab

Tabbed by Colin             Stockholm Syndrom

~=Rest                        by Blink 182
x=Mute

Intro
1-----------------------------------------------------------------
2-----------------------------------------------------------------
3----------------------------4---------------------------4--------
4---5-5-5-5-0-~--5-5-5-5-5-5----5-5-5-5-5-------------5-5---------
5---2-2-2-2-0-~--3-3-3-3--------2-2-2-2-2-----7-7-7-7-------------
6---0-0-0-0-0-~--0-0-0-0--------0-0-0-0-0-----5-5-5-5-------------

1-----------------7-----------------7-------------------7-----------------------
2-------------8---------------8-8-----------------8-8---------------------------
3---------------7-----------------7-------------------7-------------------------
4---5-5-5-5-5--------5-5-5-5------------5-5-5-5-5-----------------5-5-5-5-5-----
5---2-2-2-2-2--------3-3-3-3------------2-2-2-2-2--------7-7-7-7--3-3-3-3-2-----
6---0-0-0-0-0--------0-0-0-0------------0-0-0-0-0--------5-5-5-5----------0-----

Chorus
1--------------------------------------------------------------------
2--------------------------------------------------------------------
3--------------------------------------------------------------------
4---5-5-5-5-----5-5-5-5-----5-5-5-5----------------------------------
5---2-2-2-2-----3-3-3-3-----2-2-2-2-----7-7-7-7-----5-5-5-5----------
6---0-0-0-0-X4--0-0-0-0-X4--0-0-0-0-X4--5-5-5-5-X2--3-3-3-3-X2-------
[ Tab from: http://www.guitartabs.cc/tabs/b/blink_182/stockholm_syndrome_tab.html ]
Bridge
1----------------------------------------------------------------
2----------------------------------------------------------------
3----------------------------------------------------------------
4---5-5-5-5-4-5-5-5-5-4--~---5-5-5-5-4-5-5-5-5-4-----------------
5---x-x-x-x-x-x-x-x-x-x--~---x-x-x-x-x-x-x-x-x-x-----------------
6---3-3-3-3-2-3-3-3-3-2--~---3-3-3-3-2-3-3-3-3-2-----------------

1---------------------------------------------------------------
2---------------------------------------------------------------
3---------------------------------------------------------------
4---5--7--9--5-5-4--5-5-5-5-4-5-5-5-5-4-------------------------
5---x--x--x--x-x-x--x-x-x-x-x-x-x-x-x-x-------------------------
6---3--5--7--3-3-2--3-3-3-3-2-3-3-3-3-2------------------------- X2

Verse (Muted)
1---------------------------------------------------------------
2---------------------------------------------------------------
3---------------------------------------------------------------
4---5-5-5-5-----5-5-5-5-----5-5-5-5-----5-5-5-5-----------------
5---2-2-2-2-X4--3-3-3-3-X4--2-2-2-2-X4--0-0-0-0-X2--5-5-5-5-----
6---------------------------------------------------3-3-3-3-X2-- X4

End
1----------------------------------------------------------------
2----------------------------------------------------------------
3----------------------------------------------------------------
4---5-5-5-5-----5-5-5-5------------------------------------------
5---2-2-2-2-X4--3-3-3-3-X4---5-5-5-5-----7-7-7-7-----5-5-5-5-----
6----------------------------3-3-3-3-X4--5-5-5-5-X2--3-3-3-3-X2--  X2

Intro
Chorus 
Bridge
Verse
Chorus 
End
Comments