Blink 182 - Stockholm Syndrome Chords & Tabs

 

Stockholm Syndrome Chords & Tabs

Blink 182 Chords & Tabs

Version: 2 Type: Bass Tab 0 ratings
1 star 2 stars 3 stars 4 stars 5 stars
comments

Stockholm Syndrome Bass Tab

from Blink 182
Stockholm Syndrome
Words and Music by Travis Barker, Tom De Longe and Mark Hoppus
Fast Rock = 173bpm


Intro

|-----------------|-----------------|-----------------|-----------------|
|-----------------|-----------------|-----------------|-----------------|
|-----------------|-----------------|---3-3-3-3-------|-----------------|
|-0-0-0-0---------|-----------------|-----------------|-----------------|

|-----------------|-----------------|-----------------|-----------------|
|-----------------|-----------------|-----------------|-----------------|
|-2-2-2-2---------|-----------------|---0-0-0-0-------|-----------------|
|-----------------|-----------------|-----------------|-----------------|

|-----------------|-----------------|-----------------|-----------------|
|-----------------|-----------------|-----------------|-----------------|
|-----------------|-----------------|---3-3-3-3-------|-----------------|
|-0-0-0-0---------|-----------------|-----------------|-----------------|

|-----------------|-----------------|-----------------|-----------------|
|-----------------|-----------------|-----------------|-----------------|
|-2-2-2-2---------|-----------------|---0-0-0-0-------|--3-3-3--3-3-3-3-|
|-----------------|-----------------|-----------------|-----------------|

Chorus

|-----------------|-----------------|-----------------|-----------------|
|-----------------|-----------------|-----------------|-----------------|
|(3)--------------|-----------------|---3-3---3-3-3-3-|-3-3-3-3-3-3-3-3-|
|---0-0---0-0-0---|-0-0-0-0-0-0-0-0-|-----------------|-----------------|

|-----------------|-----------------|-----------------|-----------------|
|-----------------|-----------------|-----------------|-----------------|
|-----------------|-----------------|---0-0-0-0-0-0-0-|-----------------|
|-3-3-3-3-3-3-3-3-|-3-3-3-3-3-3-3-3-|-----------------|-2-2-2-2-2-2-2-2-|

|-----------------|-----------------|-----------------|-----------------|
|-----------------|-----------------|-----------------|-----------------|
|-----------------|-----------------|---3-3---3-3-3-3-|-3-3-3-3-3-3-3-3-|
|-2-0-0-0-0-0-0-0-|-0-0-0-0-0-0-0-0-|-----------------|-----------------|

|-----------------|-----------------|-----------------|-----------------|
|-----------------|-----------------|-----------------|-----------------|
|-----------------|-----------------|---0-0-0-0-0-0-0-|-3-3-3---3-3-3-0-|
|-3-3-3-3-3-3-3-3-|-3-3-3-3-3-3-3-3-|-----------------|-----------------|

Interlude

|-----------------|-----------------|-----------------|-----------------|
|-----------------|-----------------|-----------------|-----------------|
|-----------------|-----------------|-----------------|-----------------|
|-0---------------|-----------------|-3-3-3-3-3-2---3-|---3-3-3-3-3-3-0-|

|-----------------|-----------------|-----------------|-----------------|
|-----------------|-----------------|-----------------|-----------------|
|-----------------|-----------------|-----------------|-----------------|
|-0---------------|-----------------|-3-3-3-3-3-2---3-|---3-3-3-3-3-3-0-|

|-----------------|-----------------|-----------------|-----------------|
|-----------------|-----------------|-----------------|-----------------|
|-----------------|-----------------|-----------------|-----------------|
|-3---0-5---0-7---|-0-3---3-3-3-2-2-|-3-3-3-3-3-2-2-3-|-3-3-3-3-3-3-3-3-|
[ Tab from: http://www.guitartabs.cc/tabs/b/blink_182/stockholm_syndrome_btab_ver_2.html ]
|-----------------|-----------------|-----------------|-----------------|
|-----------------|-----------------|-----------------|-----------------|
|-----------------|-----------------|-----------------|-----------------|
|-3---0-5---0-7---|-0-3---3-3-3-2-2-|-3-3-3-3-3-2-2-3-|-3-3-3-3-3-3-3-3-|

|-----------------|-----------------|-----------------|-----------------|
|-----------------|-----------------|-----------------|-----------------|
|-----------------|-----------------|-----------------|-----------------|
|-7-7-7-7-7-7-7-7-|-7-7-7-7-7-8-8-7-|-7-8-8-8-8-8-8-8-|-8-8-8-8-8-8-8-8-|

|-----------------|-----------------|-----------------|-----------------|
|-----------------|-----------------|-----------------|-----------------|
|-----------------|-----------------|-----------------|-----------------|
|-7-7-7-7-7-7-7-7-|-7-7-7-7-7-7-7-7-|-5-5-5-5-5-5-5-5-|-3-3-3-3-3-3-3-3-|

Verse

|-----------------|-----------------|-----------------|-----------------|
|-----------------|-----------------|-----------------|-----------------|
|-----------------|-----------------|-----------------|-----------------|
|-7-7-7-7-7-7-7-7-|-7-7-7-7-7-8-8-7-|-7-8-8-8-8-8-8-8-|-8-8-8-8-8-8-8-8-|

|-----------------|-----------------|-----------------|-----------------|
|-----------------|-----------------|-----------------|-----------------|
|-----------------|-----------------|-----------------|-----------------|
|-7-7-7-7-7-7-7-7-|-7-7-7-7-7-7-7-7-|-5-5-5-5-5-5-5-5-|-3-3-3-3-3-3-3-3-|

|-----------------|-----------------|-----------------|-----------------|
|-----------------|-----------------|-----------------|-----------------|
|-----------------|-----------------|-----------------|-----------------|
|-7-7-7-7-7-7-7-7-|-7-7-7-7-7-8-8-7-|-7-8-8-8-8-8-8-8-|-8-8-8-8-8-8-8-8-|

|-----------------|-----------------|-----------------|-----------------|
|-----------------|-----------------|-----------------|-----------------|
|-----------------|-----------------|-----------------|-----------------|
|-7-7-7-7-7-7-7-7-|-7-7-7-7-7-7-7-7-|-5-5-5-5-5-5-5-5-|-3---------------|

Pre-Chorus

|-----------------|-----------------|-----------------|-----------------|
|-----------------|-----------------|-----------------|-----------------|
|-2---2-2-2-2-2-2-|-2-2-2-2-2-2-2-2-|-3-3-3-3-3-3-3-3-|-3-3-3-3-3-3-3-0-|
|-----------------|-----------------|-----------------|-----------------|

|-----------------|-----------------|-----------------|-----------------|
|-----------------|-----------------|-----------------|-----------------|
|-2-2-2-2-2-2-2-2-|-2-2-2-2-2-2-2---|-----------------|-----------------|
|-----------------|---------------0-|-5-5-5-5-5-5-5-5-|-3-3-3-3-3-3-3-0-|

|-----------------|-----------------|-----------------|-----------------|
|-----------------|-----------------|-----------------|-----------------|
|-2---2-2-2-2-2-2-|-2-2-2-2-2-2-2-2-|-3-3-3-3-3-3-3-3-|-3-3-3-3-3-3-3-0-|
|-----------------|-----------------|-----------------|-----------------|

|-----------------|-----------------|-----------------|-----------------|
|-----------------|-----------------|-----------------|-----------------|
|-2-2-2-2-2-2-2-2-|-2-2-2-2-2-2-2---|-----------------|-----------------|
|-----------------|---------------0-|-5-5-5-5-5-5-5-5-|-3-3-3-3-3-3-3-3-|

End Note

|-----------------|-----------------|
|-----------------|-----------------|
|-2~~~~~~~~~~~~~~~|~-~--------------|
|-0~~~~~~~~~~~~~~~|~-~--------------|


Intro
Chorus
Interlude
Verse
Pre-Chorus
Chorus
End Note
Comments