Blink 182 - Stay Together For The Kids Chords & Tabs

 

Stay Together For The Kids Chords & Tabs

Blink 182 Chords & Tabs

Version: 7 Type: Tab 2 ratings
1 star 2 stars 3 stars 4 stars 5 stars
comments

Stay Together For The Kids Tab

   Intro     
E |----------------------------|-----------------------------|
B |----------------------------|-----------------------------|
G |----------------------------|-----------------------------|
D |-----0----7-0--5---4—--0----|-----0----7-0---4---4--0-----|
A |--5----5--------------------|--4----4---------------------|
E |----------------------------|-----------------------------|


E |----------------------------|-----------------------------|
B |----------------------------|-----------------------------|
G |----------------------------|-----------------------------|
D |-----0----4-0--2---5---0----|-----2---4—-5--4--2--0-------|
A |--2----2--------------------|--0----0---------------------|
E |----------------------------|-----------------------------| (Repeat Once)
[ Tab from: http://www.guitartabs.cc/tabs/b/blink_182/stay_together_for_the_kids_tab_ver_7.html ]
	Verse
E |----------------------------|-----------------------------|
B |----------------------------|-----------------------------|
G |--7--7--7--7----------------|-----------------------------|
D |--7--7--7--7---9--9--9--9---|--7--7--7--7--7--7--7--7-----|
A |--5--5--5--5---9--9--9--9---|--7--7--7--7--7--7--7--7-----|
E |---------------7--7--7--7---|--5--5--5--5--5--5--5--5-----| (Repeat Once)
  			            			      


	Chorus (Distortion)
E |----------------------------|-----------------------------|
B |----------------------------|-----------------------------|
G |----------------------------|-----------------------------|
D |---5------------------------|---4-------------------------|
A |---5-(16 times)-------------|---4-(16 times)--------------|
E |---3------------------------|---2-------------------------| (4x)

	Interlude
E |----------------------------|
B |----------------------------|
G |---7------------------------|
D |---7----7----5----7---------|
A |---5----7----5----7---------|
E |--------5----3----5---------|(4x)
Comments