Blink 182 - Stay Together For The Kids Chords & Tabs

 

Stay Together For The Kids Chords & Tabs

Blink 182 Chords & Tabs

Version: 4 Type: Tab 5 ratings
1 star 2 stars 3 stars 4 stars 5 stars
comments

Stay Together For The Kids Tab

Song: Stay Together for the Kids                             Album: Take Off Your Pants And Jacket
by: Blink 182

guitar tab                  this is 99.9 percent right.....trust me  basicly it iS perfect!


 Intro                                              2x
E------------------------------------------------------------------------------------------------------------------------------
A--5-----5-----5---------------4----4----4-------------2-----2-------2-----------------0-------0-----------------------------
D-----0-----7-----0--4--0--------0----7----0--4--0-------0-----4---------0---2---0-------2-------2----4----5---4---2---0--
G-----------------------------------------------------------------------------------------------------------------------------
B------------------------------------------------------------------------------------------------------------------------------
E------------------------------------------------------------------------------------------------------------------------------

Verse		                    2x
E-----------------------------------------------------------------------------------------------------------------------------
A--------------------------2--2------------------0--0------------------0--0----------------0--0------------------------
D---0--0--------------------------------------------------------------------------------------------------------------------
G----------2--2--2--2----------2--2--2--2-----------2--2--2--2------------2---2--2------------2--2-------------
B----------3--3--3--3----------3--3--3--3-----------3--3--3--3------------5---5--5------------2--3--------------
E-----------------------------------------------------------------------------------------------------------------------------
[ Tab from: http://www.guitartabs.cc/tabs/b/blink_182/stay_together_for_the_kids_tab_ver_4.html ]
Chorus                                           4x
E-----3-3-3-3-3-3-3-3-3-3-3-3-3-3-3-3---2-2-2-2-2-2-2-2-2-2-2-2-2-2-2-2-----------------------------
A-----5-5-5-5-5-5-5-5-5-5-5-5-5-5-5-5---5-5-5-5-5-5-5-5-5-5-5-5-5-5-5-5-----------------------------
D-----------------------------------------------------------------------------------------------------------------------------
G-----------------------------------------------------------------------------------------------------------------------------
B------------------------------------------------------------------------------------------------------------------------------
E------------------------------------------------------------------------------------------------------------------------------

INTRO again 2x


VERSE again 2x

Interlude
E---------
A---5-----       let ring
D---------
G---------
B---------
E---------

E-----------------------------------------------------------------------------------------------------------------------------
A-------------------------------------2---------------------2--------0-----------0----0----------0----------0------0---
D-0----0-----0-----0-----0----------------0------0---------0------------0-------------0------------2------2-----2--
G---2----2----2-----2-------2--------2-----2-------2--------2------2----2----2---------2------2---2-------2----2
B -----------------------------------------------------------------------------------------------------------------------------
E------------------------------------------------------------------------------------------------------------------------------

CHORUS again 9x       to finish song


Song is easy if practice,     interlude beat is way off but the notes r there, i dont play interlude
anyway........blink rox
Comments