Blink 182 - Stay Together For The Kids Chords & Tabs

 

Stay Together For The Kids Chords & Tabs

Blink 182 Chords & Tabs

Version: 3 Type: Tab 0 ratings
1 star 2 stars 3 stars 4 stars 5 stars
comments

Stay Together For The Kids Tab

Guitar tab for:  Stay together for the kids   from Blink 182

Artist: Blink 182
Name: Stay together for the kids
Album: Take off your pants and jacket
Tab: redzac@t-online.de   

Quite cool album...the new one!!!


1. Intro
(hope you'll get the rhythim...)

   repeat 2x
E------------------------------------------------------------------------------
B------------------------------------------------------------------------------
G------------------------------------------------------------------------------
D--------0-------7-------0---4--0--------0-------7-------0---4---0-------------
A----5-------5-------5--------------4--------4-------4-------------------------
E------------------------------------------------------------------------------
[ Tab from: http://www.guitartabs.cc/tabs/b/blink_182/stay_together_for_the_kids_tab_ver_3.html ]
E------------------------------------------------------------------------------
B------------------------------------------------------------------------------
G----------------------------0-------------------------------------------------
D--------0-------4-------0-------0-------2-------4---5---4---2---0-------------
A----2-------2-------2---------------0-------0---------------------------------
E------------------------------------------------------------------------------


When Mark begins to sing, play some cords like D, B and A!!! (power cords)

Refrain:

E------------------------------------------------------------------------------
B------------------------------------------------------------------------------
G------------------------------------------------------------------------------
D------------------------------------------------------------------------------
A----5-5-5-5-5-5-5-5-5-5-5-5-5----5-5-5-5-5-5-5-5-5-5-5-5-5-----5--5- Play again!
E----3-3-3-3-3-3-3-3-3-3-3-3-3----2-2-2-2-2-2-2-2-2-2-2-2-2-----0--2- It'll make sence :-)


     I think this Refrain is better!

These should be the main parts of the song!!!

 

   (shit...i'm not the first person who made a tab for stfk......!!!pinoy!!!)
Comments