Blink 182 - Stay Together For The Kids Chords & Tabs

 

Stay Together For The Kids Chords & Tabs

Blink 182 Chords & Tabs

Version: 12 Type: Tab 0 ratings
1 star 2 stars 3 stars 4 stars 5 stars
comments

Stay Together For The Kids Tab

---------------------------------------------------------------------------------
		         Blink-182 - Stay Together for the Kids
---------------------------------------------------------------------------------
Standard Tuning


Main Riff/Intro


e|------------------|------------------|
B|------------------|------------------|
G|------------------|------------------|
D|----0---7---0-4-0-|----0---7-0---4-0-|
A|--5---5---5-------|--4---4-----4-----|
E|------------------|------------------|

e|------------------|------------------|
B|------------------|------------------|
G|------------------|------------------|
D|----0---4-0---5-0-|----2---4-5-4-2-0-|
A|--2---2-----2-----|--0---0-----------|
E|------------------|------------------|

Verse 1

	  "It's hard to wake up when the shades have been pulled shut."
e|----------------------------------|----------------------------------|          
B|-------3------3--------3-------3--|-------3-------3-------3-------3--|                    
G|-------2------2--------2-------2--|-------2-------2-------2-------2--|         
D|-0-0-0---0-0-0---0-0-0---0-0-0----|----------------------------------|          
A|----------------------------------|-2-2-2---2-2-2---2-2-2---2-2-2----|          
E|----------------------------------|----------------------------------|

     "This house is haunted, it's so pathetic, it makes no sense at all"
e|----------------------------------|----------------------------------|          
B|-------3------3--------3-------3--|-------5-------5-------5-------5--|                    
G|-------2------2--------2-------2--|-------2-------2-------2-------2--|         
D|----------------------------------|----------------------------------|          
A|-0-0-0---0-0-0---0-0-0---0-0-0----|-2-2-2---2-2-2---2-2-2---2-2-2----|          
E|----------------------------------|----------------------------------|


"I'm ripe with things to say."		"The words rot and fall away."
e|----------------------------------|----------------------------------|          
B|-------3------3--------3-------3--|-------3-------3-------3-------3--|                    
G|-------2------2--------2-------2--|-------2-------2-------2-------2--|         
D|-0-0-0---0-0-0---0-0-0---0-0-0----|----------------------------------|          
A|----------------------------------|-2-2-2---2-2-2---2-2-2---2-2-2----|          
E|----------------------------------|----------------------------------|

"What stupid poem could fix this poem>   	I'd read it every day."
       "they never> 
[ Tab from: http://www.guitartabs.cc/tabs/b/blink_182/stay_together_for_the_kids_tab_ver_12.html ]
	"So here's your holiday..."       		"Hope you en..."
e|----------------------------------|----------------------------------|
B|----------------------------------|----------------------------------|
G|----------------------------------|----------------------------------|
D|--5-5-5-5-5-5-5-5-5-5-5-5-5-5-5-5-|-5-5-5-5-5-5-5-5-5-5-5-5-5-5-5-5--|
A|--5-5-5-5-5-5-5-5-5-5-5-5-5-5-5-5-|-5-5-5-5-5-5-5-5-5-5-5-5-5-5-5-5--|
E|--3-3-3-3-3-3-3-3-3-3-3-3-3-3-3-3-|-2-2-2-2-2-2-2-2-2-2-2-2-2-2-0-2--|
	"...joy it this time. You gave it all away"	"It was mine."
e|----------------------------------|----------------------------------|
B|----------------------------------|----------------------------------|
G|----------------------------------|----------------------------------|
D|--5-5-5-5-5-5-5-5-5-5-5-5-5-5-5-5-|-5-5-5-5-5-5-5-5-5-5-5-5-5-5-5-5--|
A|--5-5-5-5-5-5-5-5-5-5-5-5-5-5-5-5-|-5-5-5-5-5-5-5-5-5-5-5-5-5-5-5-5--|
E|--3-3-3-3-3-3-3-3-3-3-3-3-3-3-3-3-|-2-2-2-2-2-2-2-2-2-2-2-2-2-2-0-2--|
	"So when your dead and gone			"Will you re..."
e|----------------------------------|----------------------------------|
B|----------------------------------|----------------------------------|
G|----------------------------------|----------------------------------|
D|--5-5-5-5-5-5-5-5-5-5-5-5-5-5-5-5-|-5-5-5-5-5-5-5-5-5-5-5-5-5-5-5-5--|
A|--5-5-5-5-5-5-5-5-5-5-5-5-5-5-5-5-|-5-5-5-5-5-5-5-5-5-5-5-5-5-5-5-5--|
E|--3-3-3-3-3-3-3-3-3-3-3-3-3-3-3-3-|-2-2-2-2-2-2-2-2-2-2-2-2-2-2-0-2--|
"...member this night? Twenty years now lost."	       "It's not right."
e|----------------------------------|----------------------------------|
B|----------------------------------|----------------------------------|
G|----------------------------------|----------------------------------|
D|--5-5-5-5-5-5-5-5-5-5-5-5-5-5-5-5-|-5-5-5-5-5-5-5-5-5-5-5-5-5-5-5-5--|
A|--5-5-5-5-5-5-5-5-5-5-5-5-5-5-5-5-|-5-5-5-5-5-5-5-5-5-5-5-5-5-5-5-5--|
E|--3-3-3-3-3-3-3-3-3-3-3-3-3-3-3-3-|-2-2-2-2-2-2-2-2-2-2-2-2-2-2-2-2--|


Interlude (Bridge)

e|----10----10--|--10----10----|--10----10--|--10----10--|
B|-------10-----|-----10-------|-----10-----|-----10-----|
G|--7-----------|-----------7--|------------|------------|
D|--------------|--------------|------------|------------|
A|--------------|--------------|------------|------------|
E|--------------|--------------|------------|------------|

e|----10----10--|--10----10----|--10----10--|--10----10--|
B|-------10-----|-----10-------|-----10-----|-----10-----|
G|--7-----------|-----------7--|------------|------------|
D|--------------|--------------|------------|------------|
A|--------------|--------------|------------|------------|
E|--------------|--------------|------------|------------|


Chorus (with no vocals)

e|----------------------------------|----------------------------------|
B|----------------------------------|----------------------------------|
G|----------------------------------|----------------------------------|
D|--5-5-5-5-5-5-5-5-5-5-5-5-5-5-5-5-|-5-5-5-5-5-5-5-5-5-5-5-5-5-5-5-5--|
A|--5-5-5-5-5-5-5-5-5-5-5-5-5-5-5-5-|-5-5-5-5-5-5-5-5-5-5-5-5-5-5-5-5--|
E|--3-3-3-3-3-3-3-3-3-3-3-3-3-3-3-3-|-2-2-2-2-2-2-2-2-2-2-2-2-2-2-0-2--|

e|----------------------------------|----------------------------------|
B|----------------------------------|----------------------------------|
G|----------------------------------|----------------------------------|
D|--5-5-5-5-5-5-5-5-5-5-5-5-5-5-5-5-|-5-5-5-5-5-5-5-5-5-5-5-5-5-5-5-5--|
A|--5-5-5-5-5-5-5-5-5-5-5-5-5-5-5-5-|-5-5-5-5-5-5-5-5-5-5-5-5-5-5-5-5--|
E|--3-3-3-3-3-3-3-3-3-3-3-3-3-3-3-3-|-2-2-2-2-2-2-2-2-2-2-2-2-2-2-0-2--|

e|----------------------------------|----------------------------------|
B|----------------------------------|----------------------------------|
G|----------------------------------|----------------------------------|
D|--5-5-5-5-5-5-5-5-5-5-5-5-5-5-5-5-|-5-5-5-5-5-5-5-5-5-5-5-5-5-5-5-5--|
A|--5-5-5-5-5-5-5-5-5-5-5-5-5-5-5-5-|-5-5-5-5-5-5-5-5-5-5-5-5-5-5-5-5--|
E|--3-3-3-3-3-3-3-3-3-3-3-3-3-3-3-3-|-2-2-2-2-2-2-2-2-2-2-2-2-2-2-0-2--|

e|----------------------------------|----------------------------------|
B|----------------------------------|----------------------------------|
G|----------------------------------|----------------------------------|
D|--5-5-5-5-5-5-5-5-5-5-5-5-5-5-5-5-|-5-5-5-5-5-5-5-5-5-5-5-5-5-5-5-5--|
A|--5-5-5-5-5-5-5-5-5-5-5-5-5-5-5-5-|-5-5-5-5-5-5-5-5-5-5-5-5-5-5-5-5--|
E|--3-3-3-3-3-3-3-3-3-3-3-3-3-3-3-3-|-2-2-2-2-2-2-2-2-2-2-2-2-2-2-2-2--|

Interlude (Bridge)

e|----10----10--|--10----10----|--10----10--|--10----10--|
B|-------10-----|-----10-------|-----10-----|-----10-----|
G|--7-----------|-----------7--|------------|------------|
D|--------------|--------------|------------|------------|
A|--------------|--------------|------------|------------|
E|--------------|--------------|------------|------------|

e|----10----10--|--10----10----|--10----10--|--10----10--|
B|-------10-----|-----10-------|-----10-----|-----10-----|
G|--7-----------|-----------7--|------------|------------|
D|--------------|--------------|------------|------------|
A|--------------|--------------|------------|------------|
E|--------------|--------------|------------|------------|

e|-----------|----------|-----------|---------|
B|-----------|----------|-----------|---------|
G|----2-0----|--0-------|----2-0----|--2------|
D|--0-----4--|-------2--|--0-----4--|------2--|
A|-----------|----------|-----------|---------|
E|-----------|----------|-----------|---------|

Chorus/Outro

	"So here's your holiday..."       		"Hope you en..."
e|----------------------------------|----------------------------------|
B|----------------------------------|----------------------------------|
G|----------------------------------|----------------------------------|
D|--5-5-5-5-5-5-5-5-5-5-5-5-5-5-5-5-|-5-5-5-5-5-5-5-5-5-5-5-5-5-5-5-5--|
A|--5-5-5-5-5-5-5-5-5-5-5-5-5-5-5-5-|-5-5-5-5-5-5-5-5-5-5-5-5-5-5-5-5--|
E|--3-3-3-3-3-3-3-3-3-3-3-3-3-3-3-3-|-2-2-2-2-2-2-2-2-2-2-2-2-2-2-0-2--|
	"...joy it this time. You gave it all away"	"It was mine."
e|----------------------------------|----------------------------------|
B|----------------------------------|----------------------------------|
G|----------------------------------|----------------------------------|
D|--5-5-5-5-5-5-5-5-5-5-5-5-5-5-5-5-|-5-5-5-5-5-5-5-5-5-5-5-5-5-5-5-5--|
A|--5-5-5-5-5-5-5-5-5-5-5-5-5-5-5-5-|-5-5-5-5-5-5-5-5-5-5-5-5-5-5-5-5--|
E|--3-3-3-3-3-3-3-3-3-3-3-3-3-3-3-3-|-2-2-2-2-2-2-2-2-2-2-2-2-2-2-0-2--|
	"So when your dead and gone			"Will you re..."
e|----------------------------------|----------------------------------|
B|----------------------------------|----------------------------------|
G|----------------------------------|----------------------------------|
D|--5-5-5-5-5-5-5-5-5-5-5-5-5-5-5-5-|-5-5-5-5-5-5-5-5-5-5-5-5-5-5-5-5--|
A|--5-5-5-5-5-5-5-5-5-5-5-5-5-5-5-5-|-5-5-5-5-5-5-5-5-5-5-5-5-5-5-5-5--|
E|--3-3-3-3-3-3-3-3-3-3-3-3-3-3-3-3-|-2-2-2-2-2-2-2-2-2-2-2-2-2-2-0-2--|
"...member this night? Twenty years now lost."	       "It's not right."
e|----------------------------------|----------------------------------|
B|----------------------------------|----------------------------------|
G|----------------------------------|----------------------------------|
D|--5-5-5-5-5-5-5-5-5-5-5-5-5-5-5-5-|-5-5-5-5-5-5-5-5-5-5-5-5-5-5-5-5--|
A|--5-5-5-5-5-5-5-5-5-5-5-5-5-5-5-5-|-5-5-5-5-5-5-5-5-5-5-5-5-5-5-5-5--|
E|--3-3-3-3-3-3-3-3-3-3-3-3-3-3-3-3-|-2-2-2-2-2-2-2-2-2-2-2-2-2-2-2-2--|


Chorus/Outro 

(Guitar 1)

	"It's not right"			"It's not right"
e|----------------------------------|----------------------------------|
B|----------------------------------|----------------------------------|
G|----------------------------------|----------------------------------|
D|--5-5-5-5-5-5-5-5-5-5-5-5-5-5-5-5-|-5-5-5-5-5-5-5-5-5-5-5-5-5-5-5-5--|
A|--5-5-5-5-5-5-5-5-5-5-5-5-5-5-5-5-|-5-5-5-5-5-5-5-5-5-5-5-5-5-5-5-5--|
E|--3-3-3-3-3-3-3-3-3-3-3-3-3-3-3-3-|-2-2-2-2-2-2-2-2-2-2-2-2-2-2-0-2--|
	"It's no right"				It's not right"
e|----------------------------------|----------------------------------|
B|----------------------------------|----------------------------------|
G|----------------------------------|----------------------------------|
D|--5-5-5-5-5-5-5-5-5-5-5-5-5-5-5-5-|-5-5-5-5-5-5-5-5-5-5-5-5-5-5-5-5--|
A|--5-5-5-5-5-5-5-5-5-5-5-5-5-5-5-5-|-5-5-5-5-5-5-5-5-5-5-5-5-5-5-5-5--|
E|--3-3-3-3-3-3-3-3-3-3-3-3-3-3-3-3-|-2-2-2-2-2-2-2-2-2-2-2-2-2-2-0-2--|

e|----------------------------------|----------------------------------|
B|----------------------------------|----------------------------------|
G|----------------------------------|----------------------------------|
D|--5-5-5-5-5-5-5-5-5-5-5-5-5-5-5-5-|-5-5-5-5-5-5-5-5-5-5-5-5-5-5-5-5--|
A|--5-5-5-5-5-5-5-5-5-5-5-5-5-5-5-5-|-5-5-5-5-5-5-5-5-5-5-5-5-5-5-5-5--|
E|--3-3-3-3-3-3-3-3-3-3-3-3-3-3-3-3-|-2-2-2-2-2-2-2-2-2-2-2-2-2-2-0-2--|

e|----------------------------------|----------------------------------|
B|----------------------------------|----------------------------------|
G|----------------------------------|----------------------------------|
D|--5-5-5-5-5-5-5-5-5-5-5-5-5-5-5-5-|-5-5-5-5-5-5-5-5-5-5-5-5-5-5-5-5--|
A|--5-5-5-5-5-5-5-5-5-5-5-5-5-5-5-5-|-5-5-5-5-5-5-5-5-5-5-5-5-5-5-5-5--|
E|--3-3-3-3-3-3-3-3-3-3-3-3-3-3-3-3-|-2-2-2-2-2-2-2-2-2-2-2-2-2-2-2-2--|

(Guitar 2)
[ ~ =let ring]
e|-----------|----------|---------|-----~0-2--------|
B|----3------|--3-------|--3------|--3--~3---3------|
G|--2-----2--|-------2--|------2--|-----~2-------2--|
D|-----------|----------|---------|-----------------|
A|-----------|----------|---------|-----------------|
E|-----------|----------|---------|-----------------|
							   (Fade out)
e|-----~0-2--------|------~0------|-----~0-2--------|-------~2------|
B|--3--~3---3------|--3---~3------|--3--~3---3------|--3----~3------|
G|-----~2-------2--|----2------2--|-----~2-------2--|----2-------2--|
D|-----------------|--------------|-----------------|---------------|
A|-----------------|--------------|-----------------|---------------|
E|-----------------|--------------|-----------------|---------------|

------------------------------------------------------------------------------
Comments