Blink 182 - Stay Together For The Kids Live Chords & Tabs

 

Stay Together For The Kids Live Chords & Tabs

Blink 182 Chords & Tabs

Version: 1 Type: Bass Tab 0 ratings
1 star 2 stars 3 stars 4 stars 5 stars
comments

Stay Together For The Kids Live Bass Tab

Band: Blink 182
Song Title: Stay Together For The Kids (live)
Tabbed By: Daniel Luengas/Javier Luengas
E-Mail: daniel182col@hotmail.com/javi_er3000@hotmail.com

This song is really cool and easy, I'm sure it's right.
Mark plays it like this live so.....enjoy....


Bass does not play intro and verse 1.

Chorus:

G|----------------------------------------|
D|----------------------------------------|
A|----------------------------------------|  X4
E|-3333333333333-222222222222222----------|

Guitar intro( bass does not play)

Verse 2:

G|---7---7---7---7---7---7---7---7---9---9---9---9---9---9-|
D|-77--77--77--77--00--00--00--00--77--77--77--77--77--77--|
A|---------------------------------------------------------| X2
E|---------------------------------------------------------|

Chorus:
[ Tab from: http://www.guitartabs.cc/tabs/b/blink_182/stay_together_for_the_kids_live_btab.html ]
G|----------------------------------------|
D|----------------------------------------|
A|----------------------------------------|  X4
E|-3333333333333-222222222222222----------|

Bridge:

G|---7-9-7---7-9-7----7---7----7-9-7-|
D|-77------77-------55--55---77------|
A|-----------------------------------| X4
E|-----------------------------------|

G|----------------------------------------|
D|----------------------------------------|
A|----------------------------------------| X2
E|-3333333333333-222222222222222----------|

Chorus:

G|----------------------------------------|
D|----------------------------------------|
A|----------------------------------------| X4
E|-3333333333333-222222222222222----------|

Outro:
its not right.... its not right....
G|----------------------------------------|
D|----------------------------------------|
A|----------------------------------------| X6
E|-3333333333333-222222222222222----------|

All right, that's it, hope you like it, any comments mail us.
Comments