Blink 182 - Stay Together For The Kids Complete Chords & Tabs

 

Stay Together For The Kids Complete Chords & Tabs

Blink 182 Chords & Tabs

Version: 1 Type: Tab 5 ratings
1 star 2 stars 3 stars 4 stars 5 stars
comments

Stay Together For The Kids Complete Tab

   
this is 100% correct and i am sure of it!!!

standard tuning

MAIN RIFF
e------------------------------------------------------------------
b------------------------------------------------------------------
g------------------------------------------------------------------
d---0---7-0-0-4-0---0---7-0-0-4-0---0---4-0---5-0---2---4/54-2-0--
a-5---5-----------4---4-----------2---2-----2-----0---0------------
E------------------------------------------------------------------
[ Tab from: http://www.guitartabs.cc/tabs/b/blink_182/stay_together_for_the_kids_complete_tab.html ]
Verse
e------------------------------------------------------------------------
b------------------------------------------------------------------------
g-----2-----2-----2-----2-----2-----2-----2-----2-----2-----2-----2-----2
d-0-0---0-0---0-0---0-0--------------------------------------------------
a-------------------------2-2---2-2---2-2---2-2---0-0---0-0---0-0---0-0--
E------------------------------------------------------------------------


Chorus
e---     -
b---     -
g---     -
d---     -
a-5-     -5
E-3- X16 -2 X16 
Comments