Blink 182 - Stay Together 4 The Kids Chords & Tabs

 

Stay Together 4 The Kids Chords & Tabs

Blink 182 Chords & Tabs

Version: 1 Type: Tab 4 ratings
1 star 2 stars 3 stars 4 stars 5 stars
comments

Stay Together 4 The Kids Tab

   
this is tabbed by rhys jones and this was all my own work
 so please don not copy

Intro

E |----------------------------|-----------------------------|
B |----------------------------|-----------------------------|
G |----------------------------|-----------------------------|
D |-----0----7----0----4---0---|-----0----7-----0-----4--0---|
A |--5----5----5----5----------|--4----4----4-----4----------|
E |----------------------------|-----------------------------|

[ Tab from: http://www.guitartabs.cc/tabs/b/blink_182/stay_together_4_the_kids_tab.html ]
E |----------------------------|-----------------------------|
B |----------------------------|-----------------------------|
G |----------------------------|-----------------------------|
D |-----0----4----0---5---0----|-----2---4--5--4--2--0-------|
A |--2----2----2---------------|--0----0---------------------|
E |----------------------------|-----------------------------| 

Verse chords = D5 E5 A5    A5 is played for longer

Chorus chords = G5 F#5


that is it simple, the intro is the interlude

Comments