Blink 182 - Sometimes Chords & Tabs

 

Sometimes Chords & Tabs

Blink 182 Chords & Tabs

Version: 2 Type: Tab 0 ratings
1 star 2 stars 3 stars 4 stars 5 stars
comments

Sometimes Tab

   
                   "Sometimes"
                          by blink 182
                        Buddha,Cheshire Cat
[ Tab from: http://www.guitartabs.cc/tabs/b/blink_182/sometimes_tab_ver_2.html ]
Solo part
e-------------------------------------------------------
b-------------------------------------------------------
g-4--4-4-4--7-7-7-5-4------------4-5-7-5-4-----4-5-4----
d---------------------7--7-7-5-7-----------5-7-------5--
a-------------------------------------------------------
e-------------------------------------------------------

Verse

Em C5 G5 D5

Chorus
C5 G5 Em C5

Chord chart
e-----------
b-----------
g-5-------7-
d-5-5--2--7-
a-3-5--2--5-
e---3--0----
 C5 G5 Em D5

Listen to the song to get the rythum and enjoy.
Comments