Blink 182 - Shut Up Chords & Tabs

 

Shut Up Chords & Tabs

Blink 182 Chords & Tabs

Version: 9 Type: Tab 0 ratings
1 star 2 stars 3 stars 4 stars 5 stars
comments

Shut Up Tab

-----------------------------------------------------
		Shut Up - Blink 182
-----------------------------------------------------

Tabed By: J.D. Norwood (j_d_norwood12@hotmail.com)
            
			intro
	part 1			part 2
e|-----------------|---------------------------------|
B|-2-2-2-2-2-2-2-2-|-----5-------5-------5-------5---|
G|-5-5-5-5-5-5-5-5-|---2---2---2---2---2---2---2---2-|
D|-----------------|-------------------------0-------|
A|-----------------|-0-------0-------4---------------|
E|-----------------|---------------------------------|


This part is the bass i just put it in cuz tom isn't playin 
anythin near the beginin
			bass part
e|---------------------------------------------------------|
B|---------------------------------------------------------|
G|---------------------------------------------------------|
D|---------------------------------------------------------|
A|-00000000-4444-5555--------------------------------------|
E|---------------------------------------------------------|

			Chorus (i'll never ask permis...)
e|---------------------------------------------------------|
B|---------------------------------------------------------|
G|---------------------------------------------------------|
D|-------------------------1414141414141414----------------|
A|-1212121212-12--77777-7--1212121212121212-(x2)-99999999--|
E|-1010101010-10--55555-5------------------------77777777--|

e|---------------------------------------------------------|
B|---------------------------------------------------------|
G|---------------------------------------------------------|
D|---------------------------------------------------------|
A|-1212121212121212-(x2)-----------------------------------|
E|-1010101010101010----------------------------------------|

			Verse
e|---------------------------------------------------------|
B|---------------------------------------------------------|
G|---------------------------------------------------------|
D|-2-2222222222222-66666666-77777777-----------------------|
A|-0-0000000000000-44444444-55555555-----------------------|
E|---------------------------------------------------------|
[ Tab from: http://www.guitartabs.cc/tabs/b/blink_182/shut_up_tab_ver_9.html ]
		The thing right before the solo
e|---------------------------------------------------------|
B|---------------------------------------------------------|
G|---------------------------------------------------------|
D|-44444444-6666-7777--------------------------------------|
A|-22222222-4444-5555--------------------------------------|
E|---------------------------------------------------------|
			
			Solo
e|---------------------------------------------------------|
B|---------------------------------------------------------|
G|---------------------------------------------------------|
D|-141414141414141414141414-131313131313-11111111111-------|
A|-121212121212121212121212-111111111111-9-9-9-9-9-9-------|
E|---------------------------------------------------------|

e|---------------------------------------------------------|
B|---------------------------------------------------------|
G|---------------------------------------------------------|
D|-181818181818181818181818-161616161616-141414141414------|
A|-161616161616161616161616-141414141414-121212121212------|
E|---------------------------------------------------------|

e|---------------------------------------------------------|
B|---------------------------------------------------------|
G|---------------------------------------------------------|
D|-191919191919-(do this on the last time instead of)-14---|
A|-171717171717---------------------------------------12---|
E|---------------------------------------------------------|

			Outro
	Guitar 1
e|---------------------------------|
B|-----5-------5-------5-------5---|
G|---2---2---2---2---2---2---2---2-|
D|-------------------------0-------|
A|-0-------0-------4---------------|
E|---------------------------------|

	Guiatar 2
e|----------------------------------------------|
B|----------------------------------------------|
G|----------------------------------------------|
D|-2-2222222222222-66666666-77777777-(end on)-2-|
A|-0-0000000000000-44444444-55555555----------0-|
E|----------------------------------------------|

order

intro part 1 x1
intro part 2 x4
bass part x4
intro part 2 x3
bass part x4
Chorus x1
Verse x4
Chorus x1
Thing before solo x6
solo x2
Chorus x1

============================================================
Comments