Blink 182 - Shut Up Chords & Tabs

 

Shut Up Chords & Tabs

Blink 182 Chords & Tabs

Version: 8 Type: Tab 0 ratings
1 star 2 stars 3 stars 4 stars 5 stars
comments

Shut Up Tab

-----------------------------------------------------
		Shut Up - Blink 182
-----------------------------------------------------

Tabed By: J.D. Norwood (j_d_norwood12@hotmail.com)
            
			intro
	part 1			part 2
e|-----------------|---------------------------------|
B|-2-2-2-2-2-2-2-2-|-----5-------5-------5-------5---|
G|-----------------|---2---2---2---2---2---2---2---2-|
D|-----------------|-------------------------0-------|
A|-----------------|-0-------0-------4---------------|
E|-----------------|---------------------------------|

			thingy 1
e|---------------------------------------------------------|
B|---------------------------------------------------------|
G|-------------------22222222------------------------------|
D|-77777777-22222222---------------------------------------|
A|-55555555-00000000---------------------------------------|
E|---------------------------------------------------------|

			thingy 2
e|---------------------------------------------------------|
B|---------------------------------------------------------|
G|---------------------------------------------------------|
D|-44444444-22222222---------------------------------------|
A|-22222222-00000000---------------------------------------|
E|---------------------------------------------------------|
[ Tab from: http://www.guitartabs.cc/tabs/b/blink_182/shut_up_tab_ver_8.html ]
			thingy 3
e|---------------------------------------------------------|
B|---------------------------------------------------------|
G|---------------------------------------------------------|
D|-22222222-6666-7777--------------------------------------|
A|-00000000-4444-5555--------------------------------------|
E|---------------------------------------------------------|

			thingy 4
e|---------------------------------------------------------|
B|---------------------------------------------------------|
G|---------------------------------------------------------|
D|-44444444-6666-7777--------------------------------------|
A|-22222222-4444-5555--------------------------------------|
E|---------------------------------------------------------|

			solo (that says 11 not 1)
e|---------------------------------------------------------|
B|---------------------------------------------------------|
G|---------------------------------------------------------|
D|-77777777-6666-4444-1111111111111111-9999-7777-----------|
A|---------------------------------------------------------|
E|---------------------------------------------------------|

		outro (part in brackets last time only)
e|---------------------------------------------------------|
B|---------------------------------------------------------|
G|---------------------------------------------------------|
D|-22222222-6666-7777-(2)----------------------------------|
A|-00000000-4444-5555-(0)----------------------------------|
E|---------------------------------------------------------|

	order

intro part 1 x1
intro part 2 x4
intro part 2 x3
thingy 1 x2
thingy 2 x2
thingy 3 x4
thingy 1 x2
thingy 2 x2
thingy 4 x6
solo x2
thingy 1 x2
thingy 2 x2
outro x4

============================================================
Comments