Blink 182 - Shut Up Chords & Tabs

 

Shut Up Chords & Tabs

Blink 182 Chords & Tabs

Version: 7 Type: Tab 0 ratings
1 star 2 stars 3 stars 4 stars 5 stars
comments

Shut Up Tab

Artist:Blink 182
Song:Shut Up
Album:Take off your pants and jacket

Guitar notation:
Standard tuning(EADGBe)
This is 100 percent correct because I got it straight from the book.

(Distortion)
e-5-5-5-5-5-5-5-5------|
B-x-x-x-x-x-x-x-x------|
G-2-2-2-2-2-2-2-2------|
D----------------------|
A----------------------|
E----------------------|
[ Tab from: http://www.guitartabs.cc/tabs/b/blink_182/shut_up_tab_ver_7.html ]
let ring*********************************************
                                            Shut the fuck
e----------------------------------------------------
B-----5-------5-------5--------5--------5--------5---
G---2---2---2---2---2---2----2---2----2---2----2---2-
D--------------------------0-----------------0-------
A-0-------0-------4-----------------4----------------
E----------------------------------------------------

 up she said I'm going fucking deaf you're always too loud, 
e---------------------------------------------------
B---------------------------------------------------
G---------------------------------------------------
D---------------------------------------------------
A-0--0-0-0-0-0-0-0-0-0-0-0--4-4-4-4-4-4-5-5-5-5-5-5-
E---------------------------------------------------

The next song I will be tabbing is the full Album for Take off your pants and jacket then 
enema of the state and then Dude ranch. There all gonna be straight from the book it will 
probably be a while before I submit Take off your pants and jacket.
Comments