Blink 182 - Shut Up Chords & Tabs

 

Shut Up Chords & Tabs

Blink 182 Chords & Tabs

Version: 3 Type: Tab 0 ratings
1 star 2 stars 3 stars 4 stars 5 stars
comments

Shut Up Tab

Blink 182- Shut up 

Tabbed by Scott McGrath 

Intro- Repeat a few times except for bit in bracket 

E----------------------------------------------------------------------- 
B-----------------------------5------5---------5---------5---------- 
G(2-2-2-2-2-2-2-2)-----2---2--2---2----2----2----2---2--------- 
D----------------------------------------------------------------------- 
A-----------------------0------------------4---------5--------0------ 
E----------------------------------------------------------------------- 
Bass part for a while, then intro for a bit again, then 
E----------------------------------------------------------------------- 
B----------------------------------------------------------------------- 
G----------------6---------7---------------------------------------------- 
D----7----------6---------7------------------------------------------------ 
A----7----------4---x4---5---x4------------------------------------------ 
E----5x8----------------------------------------------------------------- 
Ill never ask permission of you 
E----------------------------------------------------------------------- 
B----------------------------------------------------------------------- 
G------7------------------14---------------------------------------------- 
D------7-------7----------14------------------------------------------------ 
A------5-x3---7----------12x3----------------------------------------- 
[ Tab from: http://www.guitartabs.cc/tabs/b/blink_182/shut_up_tab_ver_3.html ]
E---------------5x3------------------------------------------------------ 
Im not coming home.. Repeat a few times. 
E----------------------------------------------------------------------- 
B----------------------------------------------------------------------- 
G----------------------------------------------------------------------- 
D------9-------7---------------------------------------------------------- 
A------9-------7---------------------------------------------------------- 
E------7-x8---5-x8------------------------------------------------------ 
Put other parts where necessary, then. 
Ill run away.. 
E----------------------------------------------------------------------- 
B----------------------------------------------------------------------- 
G-------9----------11---------7--------------------------------------- 
D-------9----------11---------7--------------------------------------- 
A-------7x9----9---x4----5x3--------------------------------- 
E----------------------------------------------------------------------- 
Solo bit 
E----------------------------------------------------------------------- 
B----------------------------------------------------------------------- 
G----------------------------------------------------------------------- 
D---7-x8---6-x4---4-x4---11-x8---9-x4---7-x12---6-x4-------- 
A----------------------------------------------------------------------- 
E----------------------------------------------------------------------- 

----------------------------------------------------------------------- 
----------------------------------------------------------------------- 
----------------------------------------------------------------------- 
---4-x4---11-x8---9-x4---12-x4---------------------------------- 
----------------------------------------------------------------------- 

Then repeat other parts until song ends.
Comments