Blink 182 - Shut Up Chords & Tabs

 

Shut Up Chords & Tabs

Blink 182 Chords & Tabs

Version: 2 Type: Tab 0 ratings
1 star 2 stars 3 stars 4 stars 5 stars
comments

Shut Up Tab

   
blink 182, shut up.
 Tabbed by martial, TakOffUPantJackt@aol.com.
  
----------------------------------------------------------------------
   BLINK-182                 T.O.Y.P.A.J.                      2001

   12 -> SHUT UP                                     

   My hear is not perfect so if you find any errors or if you have
     any comments don't hesitate e-mail me I answer every mail :
                       TakOffUPantJackt@aol.com
----------------------------------------------------------------------


CHORD CHART:
        F#      B       G#      C#      A       D       Eii
E|--------------------------------------------------------------------
B|--------------------------------------------------------------------
G|--------------4---------------6---------------7-------9-------------
D|------4-------4-------6-------6-------7-------7-------9-------------
A|------4-------2-------6-------4-------7-------5-------7-------------
E|------2---------------4---------------5-----------------------------

~ = let ring
x = palm mute



Intro:
E|--------------------------------------------------------------------
B|--------------------------------------------------------------------
G|-22222222-----------------------------------------------------------
D|--------------------------------------------------------------------
A|--------------------------------------------------------------------
E|--------------------------------------------------------------------


Riff 1: X 4
E|-----0----------0----------0----------0-----------------------------
B|--------------------------------------------------------------------
G|---2---2------2---2------2---2------2---2---------------------------
D|----------------------------------0---------------------------------
A|-0----------0----------4--------------------------------------------
E|--------------------------------------------------------------------


Verse:
      A~
        Shut the fuck up she said

        I'm going fucking deaf

        Your's always too loud

        Everything's too loud

        Now that all my friends left

        This place is fucking dead

        I want to move out

        When can we move out

        This shit has got to stop


-- Riff 1 -- (Clean)


        I'll run away


-- Riff 1 -- X 2


Verse:
      A~
        Get the fuck up she said

        Your life is meaningless

        It's going nowhere

        You're going nowhere

        You're just a fuck up she said

        I'll live alone instead

        She said \"You don't care\"

        I know I don't care

[ Tab from: http://www.guitartabs.cc/tabs/b/blink_182/shut_up_tab_ver_2.html ]
Chorus: 
              D           A       Eii
        I'll never ask permission from you
        D                A         Eii
        Fuck off I'm not listening to you
        B               D
        I'm not coming home
                  B                  D
        I'm never going to comeback home


Verse:
                    A
        I got too fucked up again
             C#                 D
        And passed out on the plane
                    A
        Tried to forget you
                   C#      D
        I can't forget you
            A
        No sleep on this flight
               C#              D
        I'll think about the nights
                  A
        We had to get through
                   C#            D
        How did we get through ?

        
-- Chorus --


        I'll run away


Riff 2: (Clean)
E|--------------------------------------------------------------------
B|--------------------------------------------------------------------
G|--------------------------------------------------------------------
D|-22222222-4444-0000---22222222-4444-0000----------------------------
A|--------------------------------------------------------------------
E|--------------------------------------------------------------------


-- Riff 2 -- (Clean)
        I think it's time that I should leave
        I think it's time that I should leave
        I think it's time that I should leave
        I think it's time that I should leave


Riff 3: (Clean)
E|--------------------------------------------------------------------
B|--------------------------------------------------------------------
G|--------------------------------------------------------------------
D|--------------------------------------------------------------------
A|-0000-0000-----------0000-0000-2222-0000----------------------------
E|-----------4444-2222------------------------------------------------

E|--------------------------------------------------------------------
B|--------------------------------------------------------------------
G|--------------------------------------------------------------------
D|------------------------------------0000----------------------------
A|-0000-0000-----------4444-4444-2222---------------------------------
E|-----------4444-2222------------------------------------------------


-- chorus --


-- Riff 1 --
        I'll run away
         [I think it's time for me to leave]
        I'll run away
         [I think it's time for me to leave]
        I'll run away
         [I think it's time for me to leave]
        I'll run away
         [I think it's time for me to leave]


End On A 
:: Ultimate Guitar Archive :: 
http://www.ultimate-guitar.com 



Comments