Blink 182 - Shit Piss Chords & Tabs

 

Shit Piss Chords & Tabs

Blink 182 Chords & Tabs

Version: 1 Type: Tab 0 ratings
1 star 2 stars 3 stars 4 stars 5 stars
comments

Shit Piss Tab

   
blink182,shit piss.
 Tabbed by tristan dobrian, hotpants216@musiciansfriend.com    .
  
band: blink182
song: shit piss
tunning: standard


shit, piss, fuck, cunt, cocksucker, motherfucker, tits, fart, tird, 'n' twat                    4x
i fucked her mom

                     1x let ring

e---------
b---------
g---------
d-7-------
a-7-------
e-5-------


                    1x  palm mutted

e-------------------------------------------------
b-------------------------------------------------
g-------------------------------------------------
d-5-5-5-5-5-5-5-5---------------------------------
a-3-3-3-3-3-3-3-3-5-5-5-5-5-5-5-5-7-7-7-7-7-7-7-7-
e-----------------3-3-3-3-3-3-3-3-5-5-5-5-5-5-5-5-

e-----------------
b-----------------
g-----------------
d-----------------
a-9-9-9-9-9-9-9-9-
e-7-7-7-7-7-7-7-7-

[ Tab from: http://www.guitartabs.cc/tabs/b/blink_182/shit_piss_tab.html ]
                   1x palm muted o=open
                     
e---------------------------------------------
b-----------------------------------------------
g-----------------------------------------------
d-5-5-5-5-5o------------------------------------
a-3-3-3-3---3o---5-5-5-5-5o-----7-7-7-7-7o------
e----------------3-3-3-3---3o---5-5-5-5----50---

e------------------
b------------------
g------------------
d------------------
a-9-9-9-9-9o-------
e-7-7-7-7----7o----


                    1x open  L=let ring

e-------------------------------------------------
b-------------------------------------------------
g-------------------------------------------------
d-5-5-5-5-5-5-5-5---------------------------------
a-3-3-3-3-3-3-3-3-5-5-5-5-5-5-5-5-7-7-7-7-7-7-7-7-
e-----------------3-3-3-3-3-3-3-3-5-5-5-5-5-5-5-5-

e-------------------
b-------------------
g-------------------
d-------------------
a-9-9-9-9-9-9-9-9-7L
e-7-7-7-7-7-7-7-7-5L

 
:: Ultimate Guitar Archive :: 
http://www.ultimate-guitar.com 



Comments