Blink 182 - Seasons In The Sun Chords & Tabs

 

Seasons In The Sun Chords & Tabs

Blink 182 Chords & Tabs

Version: 3 Type: Tab 0 ratings
1 star 2 stars 3 stars 4 stars 5 stars
comments

Seasons In The Sun Tab

   
Submitted by: matt fontaine
Song Title: seasons in the sun
Artist: blink-182
File Type: .tab
       Intro
E--------------------------|
B--------------------------|
G--------------------------|
D--------------------------|
A-2-3-4-2~2-3-4-2~2-3-4-3~-|
E-2-3-4-2~2-3-4-2~2-3-4-3~-|
         PALM MUTE
E-----------------------------------------------|
B-----------------------------------------------|
G-----------------------------------------------|
D-----------------------------------------------|
A-2-2-3-3-2-2-3-3-2-2-3-3-2-2-3-3---------------|
E-2-2-3-3-2-2-3-3-2-2-3-3-2-2-3-3---------------|
 The "2-2" part is palm muted, but not the "-3--|
E-----------------------------------------------|
B-----------------------------------------------|
G-----------------------------------------------|
D-----------------------------------------------|
A-2-2-3-2-2-3-2-2-3-2-2-3-2-2-3-----------------|
E-2-2-3-2-2-3-2-2-3-2-2-3-2-2-3-----------------|

E-------------------------------|
B-------------------------------|
G-------------------------------|
D-------------------------------|
A-5-5-5-5-5-5-5-5-6-6-6-6-6-6-6-|
E-3-3-3-3-3-3-3-3-4-4-4-4-4-4-4-|

repeat whole thing twice
       OUTRO
E------------------------------|
B------------------------------|
G------------------------------|
D------------------------------|
A-5-~~~~6!
E-3-~~~~4!
[ Tab from: http://www.guitartabs.cc/tabs/b/blink_182/seasons_in_the_sun_tab_ver_3.html ]
Comments