Blink 182 - Romeo And Rebecca Chords & Tabs

 

Romeo And Rebecca Chords & Tabs

Blink 182 Chords & Tabs

Version: 3 Type: Tab 0 ratings
1 star 2 stars 3 stars 4 stars 5 stars
comments

Romeo And Rebecca Tab

Romeo and Rebecca - Intro


e|-----------------------------------------------------------------|
B|-----------------------------------------------------------------|
G|-----------------------------------------------------------------|
D|-7-7-7-7-7-7-7-6------------------7-7-7-7-7-7-7-6----------------|
A|-----------------7-7-7-7-7-7-7-7------------------7--5--5-4-0-0--|
E|-----------------------------------------------------------------|

(x2)
[ Tab from: http://www.guitartabs.cc/tabs/b/blink_182/romeo_and_rebecca_tab_ver_3.html ]
e|-------------------------------------------------------------------------|
B|-------------------------------------------------------------------------|
G|-------------------------------------------------------------------------|
D|-6--6-7-7-6-7-9-9-7-7-6-7-9-9--11-12-11-11-9-7-6-7-6-7-6---7-6---7-6-----|
A|---------------------------------------------------------7-----7-----7---|
E|-------------------------------------------------------------------------|

e|--------------------------------------|
B|--------------------------------------|
G|--------------------------------------|
D|-7-7-6-----------------7--------------|
A|-------7-5--5-4-5-4-0--7--(let ring)--|
E|-----------------------5--------------|

the other tabs in the intro sounded nothing like it, and it was pissing me off.

if you want the rest, email me.

===============================================================================
Questions, comments, email me at taxi-gurl@mbox.com.au

Harry Potter kicks arse...
Emma Watson, you're my hero... and tom delonge, and ben folds.
Comments