Blink 182 - Romeo And Rebecca Chords & Tabs

 

Romeo And Rebecca Chords & Tabs

Blink 182 Chords & Tabs

Version: 2 Type: Tab 0 ratings
1 star 2 stars 3 stars 4 stars 5 stars
comments

Romeo And Rebecca Tab

BLINK 182 - Romeo and Rebecca
(Buddha, Cheshire Cat(

Tabbed by Ryan Reed

It kinda looks complicated but it's really easy.  Good luck.



Guitar 1:  Intro (Palm-Muted)  (X6)

e-------------------------------------------------------------------
B-------------------------------------------------------------------
G-------------------------------------------------------------------
D--2-2-2-2-2-2-2-2-4-4-4-4-4-4-4-4-6-6-6-6-6-6-6-6-4-4-4-4-4-4-4-4--
A--0-0-0-0-0-0-0-0-2-2-2-2-2-2-2-2-4-4-4-4-4-4-4-4-2-2-2-2-2-2-2-2--
E-------------------------------------------------------------------

Guitar 2:  Intro pt. 1  (X2)

e---------------------------------------------------
B---------------------------------------------------
G---------------------------------------------------
D----7--7-6----------------------7--7-6-------------
A--0---0----7-7-7-7-7-7-7-----44---4----7-5--5-4-4--
E---------------------------------------------------

Intro pt. 2  (X1)

e----------------------------------------------------------------------
B----------------------------------------------------------------------
G----------------------------------------------------------------------
D--6-6-6-7-7-7-6-7-9-9-9-7-7-7-6-7-9-9-9-11-11-12-12-11-11-11-9-9-7-7-6
A----------------------------------------------------------------------
E----------------------------------------------------------------------

Intro pt. 2 cont.  

e------------------------------------------------------------------
B------------------------------------------------------------------
G------------------------------------------------------------------
D--7-6-6-7-6-6-7-9-9-9-9-9-9-9-9-9--7-7-7-6-6----------------------
A---------------------------------------------7-7-5-5-4-4-5-5-4-4--
E------------------------------------------------------------------

Bass Intro (try playing it on guitar)  (X2)
[ Tab from: http://www.guitartabs.cc/tabs/b/blink_182/romeo_and_rebecca_tab_ver_2.html ]
e------------------------------------------------------------
B------------------------------------------------------------
G------------------------------------------------------------
D------2--2---------2---4-2--2-----2--4-2--2----4---4-4-2-2--
A--0-0---0--(0)-2-2---2----2---4-4--4----4---2-2--2----------
E------------------------------------------------------------

Verse 1 (Palm-muted)  (X4)

e-------------------------------------------------------------------
B-------------------------------------------------------------------
G-------------------------------------------------------------------
D--2-2-2-2-2-2-2-2-4-4-4-4-4-4-4-4-6-6-6-6-6-6-6-6-4-4-4-4-4-4-4-4--
A--0-0-0-0-0-0-0-0-2-2-2-2-2-2-2-2-4-4-4-4-4-4-4-4-2-2-2-2-2-2-2-2--
E-------------------------------------------------------------------

Bridge (X2)

e-----------------------------------
B-----------------------------------
G----------9-9-9-9---------7-7-7-7--
D--7-7-7-7-9-9-9-9-4-4-4-4-7-7-7-7--
A--7-7-7-7-7-7-7-7-4-4-4-4-5-5-5-5--
E--5-5-5-5---------2-2-2-2----------

Verse 2  (X4)

e-------------------------------------------------------------------
B-------------------------------------------------------------------
G--2-2-2-2-2-2-2-2-4-4-4-4-4-4-4-4-6-6-6-6-6-6-6-6-4-4-4-4-4-4-4-4--
D--2-2-2-2-2-2-2-2-4-4-4-4-4-4-4-4-6-6-6-6-6-6-6-6-4-4-4-4-4-4-4-4--
A--0-0-0-0-0-0-0-0-2-2-2-2-2-2-2-2-4-4-4-4-4-4-4-4-2-2-2-2-2-2-2-2--
E-------------------------------------------------------------------

Bridge  (X2)

Interlude  (X2)

e------------------------------------
B------------------------------------
G------------------------------------
D--7-7-7p9-2-2-2--11-11-11p12-9-9-9--
A--7-7-7p9-2-2-2--11-11-11p12-9-9-9--
E--5-5-5p7-0-0-0--9--9--9p10--7-7-7--

Interlude pt. 2  (X4)

e-----------------------------------
B-----------------------------------
G--2-2-2-2-4-4-4-4-6-6-6-6-7-7-7-7--
D--2-2-2-2-4-4-4-4-6-6-6-6-7-7-7-7--
A--0-0-0-0-2-2-2-2-4-4-4-4-5-5-5-5--
E-----------------------------------

Outro  (X2)

e----------------------------------
B----------------------------------
G----------------------------------
D--7-7-7--2-2-2--11-11-11-9-9-9----
A--7-7-7--2-2-2--11-11-11-9-9-9----
E--5-5-5--0-0-0--9--9--9--7-7-7----

End on A5

(e----
 B----
 G-2--
 D-2--
 A-0--
 E----)

Well, that took forever.  Enjoy!
Comments