Blink 182 - Romeo And Rebecca Chords & Tabs

 

Romeo And Rebecca Chords & Tabs

Blink 182 Chords & Tabs

Version: 1 Type: Tab 0 ratings
1 star 2 stars 3 stars 4 stars 5 stars
comments

Romeo And Rebecca Tab

   
Blink 182 - Romeo and Rebecca.
 Tabbed by Mike, hawker489@aol.com.
  

Intro:

e------------------------------------------------
B------------------------------------------------
G------------------------------------------------
D-7-7-7-7-7-7-7-6-----------------7-7-7-7-7-7-7--
A-----------------7-7-7-7-7-7-7-7----------------
E------------------------------------------------

e------------------------------------------------
B------------------------------------------------
G-------7-7-7-6-6--------------------------------
D-6---------------7-7-7-7-7-7-7-7-6--------------
A---7-7-----------------------------7-7-7-7-7-7-7
E------------------------------------------------

e------------------------------------------------
B------------------------------------------------
G-----------------------7-7-7-6-6----------------
D---7-7-7-7-7-7-7-6---------------7-7-7-6-6-6-7--
A-7-----------------7-7--------------------------
E------------------------------------------------

e------------------------------------------------
B------------------------------------------------
G------------------------------------------------
D-7-9-9-9-7-7-7-6-7-9-9-9-11-12-11-11-9-11-9-7---
A------------------------------------------------
E------------------------------------------------
[ Tab from: http://www.guitartabs.cc/tabs/b/blink_182/romeo_and_rebecca_tab.html ]
e------------------------------------------------
B------------------------------------------------
G------------------------------------------------
D-6-7-6---7-6---7-6-----------------7-7-7-6------
A-------7-----7-----7-7-7-7-7-7-7-7---------7-5--
E------------------------------------------------

e------------------------------------------------
B------------------------------------------------
G------------------------------------------------
D-----------7------------------------------------
A-5-4-5-4-0-7-hold that note for a bit-----------
E-----------5------------------------------------

Verse/Chorus: Play E(flat), A(flat), F#(sharp)

e------------------------------------------------
B------------------------------------------------
G-5-5-5-7-------------9-9-9-10-7-7-7-7-7-7-------
D-5-5-5-7-5-5-5-5-5-5-9-9-9-10-7-7-7-7-7-7-------
A-3-3-3-5-5-5-5-5-5-5-7-7-7--8-5-5-5-5-5-5-------
E---------3-3-3-3-3-3----------------------------

e------------------------------------------------
B------------------------------------------------
G-5-5-5-7-------------9-9-9-10-7-7-7-7-7-7-------
D-5-5-5-7-5-5-5-5-5-5-9-9-9-10-7-7-7-7-7-7-------
A-3-3-3-5-5-5-5-5-5-5-7-7-7--8-5-5-5-5-5-5-------
E---------3-3-3-3-3-3----------------------------

Thats it. The Intro is pretty easy to play, but the Verse/Chorus is kinda hard. 
:: Ultimate Guitar Archive :: 
http://www.ultimate-guitar.com 



Comments